Oops, an error
Loading. Please wait.

The Taste Of Ink Bass Tab

by Used
ver5
ver5
More versions @911Tabs.com
1,289 views 3 this week
no commentswrite comment
1 2 3 4 5
accurate
x 3
Autoscroll
+/-
esc
set tempo
stop
Contributor
Difficulty
intermediate
Hey! There's an official Ultimate Guitar app which is ideal
for learning songs when you're away from computer. Get the app
WARNING: You are trying to view
                                    content from Ultimate-Guitar.com
                                    in an unauthorized application,
                                    which is prohibited.

                                    Please use an official Ultimate
                                    Guitar Tabs application for iPhone,
                                    iPad or Android to access legitimate
                                    chords, guitar, bass, and drum tabs
                                    from Ultimate-Guitar.com database.

                                    Type "ultimate guitar tabs" in Apple
                                    App Store's or Android Market's
                                    search to find the application.
The Taste Of Ink                                 
The Used
Bass Guitar - 5 String Bass (BEADG)

Intro   
G||-------|-------|-------|-------|-------------------------|
D||-------|-------|-------|-------|-------------------------|
A||-------|-------|-------|-------|--------------3/--15\----|
E||-------|-------|-------|-------|-------------------------|
B||-------|-------|-------|-------|-------------------------|

Verse 1
G||----------------------------|---------------------------|
D||----------------------------|---------------------------|
A||----------------------------|--3-----3-----3----3-3--3--|
E||--5-----5-----5----5-5--5-5-|---------------------------|
B||----------------------------|---------------------------|
 
G||-----------------------------|----------------------------|
D||--5-----5-----5----5-7p-5----|----------------------------|
A||--------------------------7--|--5-----5--------5-5-----5--|
E||-----------------------------|--------------5------5-5----|
B||-----------------------------|----------------------------|
 
G||----------------------------|---------------------------|
D||----------------------------|---------------------------|
A||----------------------------|--3-----3-----3----3-3--3--|
E||--5-----5-----5----5-5--5-5-|---------------------------|
B||----------------------------|---------------------------|

G||-----------------------------|----------------------------|
D||--5-----5-----5----5-7p-5----|----------------------------|
A||--------------------------7--|--5-----5--------5-5-----5--|
E||-----------------------------|--------------5------5-5----|
B||-----------------------------|----------------------------|
 
G||----------------------------|---------------------------|
D||----------------------------|---------------------------|
A||----------------------------|--3-----3-----3----3-3--3--|
E||--5-----5-----5----5-5--5-5-|---------------------------|
B||----------------------------|---------------------------|
  
G||-----------------------------|----------------------------|
D||--5-----5-----5----5-7p-5----|----------------------------|
A||--------------------------7--|--5-----5---------5------5--|
E||-----------------------------|--------------5-5----5-5----|
B||-----------------------------|----------------------------|

Chorus
G||----------------------------------|-------------------------------|
D||-----------10-10-10-10-10-10-10\--|-------------------------------|
A||----------------------------------|-------------------------------|
E||----------------------------------|--3--3-3-3--3-3-3-3-3-3-3--3-3-|
B||--1-------------------------------|-------------------------------|

G||-------------------------------|-------------------------------|
D||-------------------------------|-------------------------------|
A||--5--5-5-5--5-5-5-5-5-5-5--5-5-|---------------------------2---|
E||-------------------------------|--5--5-5-5-5-5-5-5-5-5-5-5-----|
B||-------------------------------|-------------------------------|

G||--------------------------------|-------------------------------|
D||--------------------------------|-------------------------------|
A||--------------------------------|-------------------------------|
E||--------------------------------|--3--3-3-3--3-3-3-3-3-3-3--3-3-|
B||--1--1-1-1--1-1-1-1-1-1-1-1-1-1-|-------------------------------|

G||-------------------------------|-------------------------------|
D||-------------------------------|-------------------------------|
A||--5--5-5-5--5-5-5-5-5-5-5--5-5-|---------------------------2---|
E||-------------------------------|--5--5-5-5-5-5-5-5-5-5-5-5-----|
B||-------------------------------|-------------------------------|

G||------------------------------|-----|-----|-----|-------------------------|
D||------------------------------|-----|-----|-----|-------------------------|
A||--3--3-3---3-3--3-3-3-3-3--3--|-----|-----|-----|--------------3/--15\----|
E||------------------------------|-----|-----|-----|-------------------------|
B||------------------------------|-----|-----|-----|-------------------------|

Verse 2
G||----------------------------|---------------------------|
D||----------------------------|---------------------------|
A||----------------------------|--3-----3-----3----3-3--3--|
E||--5-----5-----5----5-5--5-5-|---------------------------|
B||----------------------------|---------------------------|
 
G||-----------------------------|----------------------------|
D||--5-----5-----5----5-7p-5----|--------------7-7----7-7----|
A||--------------------------7--|--5-----5---------5------5--|
E||-----------------------------|----------------------------|
B||-----------------------------|----------------------------|

Chorus
G||--------------------------------|-------------------------------|
D||--------------------------------|-------------------------------|
A||-------3---3------3-3-3---3-3-3-|-------------------------------|
E||--------------------------------|--3--3-3-3--3-3-3-3-3-3-3--3-3-|
B||--1--1-------1--1---------------|-------------------------------|
 
G||-------------------------------|-------------------------------|
D||-------------------------------|-------------------------------|
A||--5--5-5-5--5-5-5-5-5-5-5--5-5-|---------------------------2---|
E||-------------------------------|--5--5-5-5-5-5-5-5-5-5-5-5-----|
B||-------------------------------|-------------------------------|

G||--------------------------------|-------------------------------|
D||--------------------------------|-------------------------------|
A||--------------------------------|-------------------------------|
E||--------------------------------|--3--3-3-3--3-3-3-3-3-3-3--3-3-|
B||--1--1-1-1--1-1-1-1-1-1-1-1-1-1-|-------------------------------|

G||-------------------------------|-------------------------------|
D||-------------------------------|-------------------------------|
A||--5--5-5-5--5-5-5-5-5-5-5--5-5-|---------------------------2---|
E||-------------------------------|--5--5-5-5-5-5-5-5-5-5-5-5-----|
B||-------------------------------|-------------------------------|

G||------------------------------|-------------7----7------------|
D||------------------------------|--5--5-5---5----5----5-5-5-5---|
A||--3--3-3---3-3--3-3-3-3-3--3--|-------------------------------|
E||------------------------------|-------------------------------|
B||------------------------------|-------------------------------|

Bridge 
G||---------------------|------------------------|--------------------------|
D||--5------------5--5--|------------------------|--/7----7--7-------7\-----|
A||---------------------|--5-----------5--5--5/--|--------------------------|
E||---------------------|------------------------|--------------------------|
B||---------------------|------------------------|--------------------------|

G||--5--------5-5-5---------||--------7----------7-----|-------7----------7-----|
D||-----------------5-5--7--||*--5-------5----------5--|--4-------4----------4--|
A||-------------------------||-------------------------|------------------------|
E||-------------------------||*------------------------|------------------------|
B||-------------------------||-------------------------|------------------------|

G||-------9----------9----|----------------------------------||
D||--7-------7------------|--10----10--10-----10--10-10-10--*||
A||-----------------------|----------------------------------||
E||-----------------------|---------------------------------*||
B||-----------------------|----------------------------------||

Verse 3
G||------------------------------|---------------------------|
D||------------------------------|---------------------------|
A||------------------------------|---------------------------|
E||----------------------/8--/8--|--5-----5-----5----5-5--5--|
B||--1--1-1---1-1----1-----------|---------------------------|

G||---------------------------|---------------------------|
D||---------------------------|--5-----5-----5----5-5--5--|
A||--3-----3-----3----3-3--3--|---------------------------|
E||---------------------------|---------------------------|
B||---------------------------|---------------------------|

G||------------------------------|---------------------------|
D||------------------------------|---------------------------|
A||--5-----5-------5-5-5---5-5-5-|---------------------------|
E||--------------5-------5-------|--5-----5-----5----5-5--5--|
B||------------------------------|---------------------------|
 
G||----------------------------|---------------------------|
D||----------------------------|--5-----5-----5----5-5--5--|
A||--3-----3-----3----3-3--3/--|---------------------------|
E||----------------------------|---------------------------|
B||----------------------------|---------------------------|
 
G||----------------------------|--------------------------------|
D||--------------7-7----7-7----|--------------------------------|
A||--5-----5---------5------5--|-------3-L-3------3-3-3---3-3-3-|
E||----------------------------|--------------------------------|
B||----------------------------|--1--1-------1--1---------------|

Chours 
G||-------------------------------|-------------------------------|
D||-------------------------------|-------------------------------|
A||-------------------------------|--5--5-5-5--5-5-5-5-5-5-5--5-5-|
E||--3--3-3-3--3-3-3-3-3-3-3--3-3-|-------------------------------|
B||-------------------------------|-------------------------------|

G||-------------------------------|--------------------------------|
D||-------------------------------|--------------------------------|
A||---------------------------2---|--------------------------------|
E||--5--5-5-5-5-5-5-5-5-5-5-5-----|--------------------------------|
B||-------------------------------|--1--1-1-1--1-1-1-1-1-1-1-1-1-1-|
 
G||-------------------------------|-------------------------------|
D||-------------------------------|-------------------------------|
A||-------------------------------|--5--5-5-5--5-5-5-5-5-5-5--5-5-|
E||--3--3-3-3--3-3-3-3-3-3-3--3-3-|-------------------------------|
B||-------------------------------|-------------------------------|

G||-------------------------------|------------------------------|
D||-------------------------------|------------------------------|
A||---------------------------2---|--3--3-3---3-3--3-3-3-3-3--3--|
E||--5--5-5-5-5-5-5-5-5-5-5-5-----|------------------------------|
B||-------------------------------|------------------------------|

G||--------7-----------------7-------|---------12---------------------------------|
D||--5-5-5-----5-5-5-5-5-5-5---5-5-5-|--10--10------10-10--10-10-10-10-10-10-10---|
A||----------------------------------|--------------------------------------------|
E||----------------------------------|--------------------------------------------|
B||----------------------------------|--------------------------------------------|

Outro

G||-----------------------------|---------------------------|
D||*----------------------------|---------------------------|
A||-----------------------------|--3-----3-----3----3-3--3--|
E||*--5-----5-----5----5-5--5-5-|---------------------------|
B||-----------------------------|---------------------------|
 
G||-----------------------------|-----------------------------||
D||--5-----5-----5----5-7p-5----|----------------------------*||
A||--------------------------7--|--5-----5--------5-5-----5---||
E||-----------------------------|--------------5------5-5----*||
B||-----------------------------|-----------------------------||
 
G||---------------------------|----------------------------|
D||---------------------------|----------------------------|
A||---------------------------|----------------------------|
E||--5-----5-----5----5-5--5--|--7-----7-----7----7-7--7-7-|
B||---------------------------|----------------------------|
                      
G||---------------------------|---------------------------|----|----|----|----||
D||---------------------------|--4-----4-----4----4-4--4--|----|----|----|----||
A||--4-----4-----4----4-4--4--|---------------------------|----|----|----|----||
E||---------------------------|---------------------------|----|----|----|----||
B||---------------------------|---------------------------|----|----|----|----||
comments
We did not receive enough feedback on this tab! Please rate:
print report bad tab
1 2 3 4 5
I want to post or [tab]
guest
You may want to rate the tab now too:
select rating
Please do not post tabs as comments. Select "correction" instead!