Oops, an error
Loading. Please wait.

Used Tab

by Used
6,869 views 3 this week
3 commentsread comments
1 2 3 4 5
accurate
x 8
Autoscroll
+/-
esc
set tempo
stop
Hey! There's an official Ultimate Guitar app which is ideal
for learning songs when you're away from computer. Get the app
WARNING: You are trying to view
                                    content from Ultimate-Guitar.com
                                    in an unauthorized application,
                                    which is prohibited.

                                    Please use an official Ultimate
                                    Guitar Tabs application for iPhone,
                                    iPad or Android to access legitimate
                                    chords, guitar, bass, and drum tabs
                                    from Ultimate-Guitar.com database.

                                    Type "ultimate guitar tabs" in Apple
                                    App Store's or Android Market's
                                    search to find the application.
These are actually songs by different tabbers but i put them together
so you won't have 2. thx all the tabbers 4 these awesome songs.
 



Maybe Memories by Daniel Ulibere

Intro                    3X  gradually getting louder
||-------------------------|| |-------------------|
||-------------------------|| |-------------------|
||o-----------------------o|| |-------------------|
||o-----------------------o|| |---------------x-x-|
||-------------------------|| |---------------x-x-|
||--2--2-2-0-2----2-2-0-0--|| |--2--2-2-0-2---x-x-|
    PM - - - -    - - - -|

 Verse                      3X
||---------------------------|| |---------------------------|
||---------------------------|| |---------------------------|
||o-------------------------o|| |---------------------------|
||o--2--2-2-0-2----2-2-0-0--o|| |--2-2-2-2-0--2-2-0--2-2-0--|
||---2--2-2-0-2----2-2-0-0---|| |--2-2-2-2-0--2-2-0--2-2-0--|
||---2--2-2-0-2----2-2-0-0---|| |--2-2-2-2-0--2-2-0--2-2-0--|

 Chorus   _____     __     
         |1.3.4    |2.
||------|------|| |--------------------|
||------|------|| |--------------------|
||o--5--|--7--o|| |--7-----------------|
||o--5--|--7--o|| |--7---0--0-0--0-0-0-|
||---3--|--5---|| |--5---0--0-0--0-0-0-|
||------|------|| |------0--0-0--0-0-0-|
     S     S         S   PM - -  - - -|

Repeat Intro
Repeat Verse
Repeat Chorus

 Bridge/Interlude          4X
||--------------------------|| |-----|-----|-----|-----|-----|-----|-----|
||----------5-5-5-5-5-5-5---|| |-----|-----|-----|-----|-----|-----|-----|
||o------------------------o|| |--4--/--5--/--7--|--4--/--7--/--9--|--5--|
||o--2--2-0----------------o|| |--4--/--5--/--7--|--4--/--7--/--9--|--5--|
||---2--2-0-----------------|| |--2--/--3--/--5--|--2--/--5--/--7--|--3--|
||---2--2-0-----------------|| |-----|-----|-----|-----|-----|-----|-----|
            PM- - - - - -|        S     S     S     S     S     S    Let ring 

 Clean           Not sure about this part
|-------------| ||-------|------||
|----8--------| ||---8---|------||
|--9----------| ||o--7---|--7--o||
|-------9-----| ||o--5---|--7--o||
|---------10--| ||-------|--5---||
|-------------| ||-------|------||
                     S      S
 (W/Dist)
 Chorus   _______          
         |1.2.3.4    
||------|------|| 
||------|------|| 
||o--5--|--7--o|| 
||o--5--|--7--o|| 
||---3--|--5---|| 
||------|------|| 
     S     S         

 Outro                     4X 
||--------------------------|| |----------------|
||--------------------------|| |----------------|
||o------------------------o|| |----------------|
||o------------------------o|| |--2--2-2-2-0-2--|
||--------------------------|| |--2--2-2-2-0-2--|
||---2--2-2-0-2---2-2-0-0---|| |--2--2-2-2-0-2--|
     PM - - - -   - - - -|

                           8X
||--------------------------|| |------|
||--------------------------|| |------|
||o------------------------o|| |------|
||o--2--2-2-0-2---2-2-0-0--o|| |--2\--|
||---2--2-2-0-2---2-2-0-0---|| |--2\--|
||---2--2-2-0-2---2-2-0-0---|| |--2\--|








The Taste Of Ink by Joe Delucca

Intro/Verse:
Guitar (Clean)

"Is it worth it........................"

E-------3--3--3--3------3--3--3--3---------------------------------------------
B-------3--3--3--3------3--3--3--3----8--8--8--8----8--8--8--------------------
G-------0--0--5--4------5--7--5--4----7--7--7--7----7--7--7--------------------
D-------5--5--5--5------5--5--5--5----5--5--5--5----x--x--x----4--4--5--5--4--4
A-------0--0--0--0------3--3--3--3----5--5--5--5----5--5--5----5--5--5--5--5--5
D-------------------------------------5--5--5--5----0--0--0----0--0--0--0--0--0

**Repeat 2 times then repeat two more times with distortion**
Guitar(distortion)
E-------3--3--3--3------3--3--3--3---------------------------------------------
B-------3--3--3--3------3--3--3--3---------------------------------------------
G-------0--0--5--4------5--7--5--4-----------------------------11-11-11-11-11--
D-------5--5--5--5------5--5--5--5----7--7--5--5----7--7--7----x--x--x--x--x---
A-------0--0--0--0------3--3--3--3----5--5--5--5----5--5--5----9--9--9--9--9---
D-------------------------------------5--5--5--5----0--0--0----0--0--0--0--0---

**last chord before chorus**
E------------------------------------------------------------------------------
B--8--8--8--8--8---------------------------------------------------------------
G--7--7--7--7--7---------------------------------------------------------------
D--5--5--5--5--5---------------------------------------------------------------
A--0--0--0--0--0---------------------------------------------------------------
D------------------------------------------------------------------------------

Chorus:

"So here Iam .........."
E------------------------------------------------------------------------------
B--8--8--8--8-----3--3--3--3-----10--10--10--10\---------13--13--xx------------
G--7--7--7--7-----2--2--2--2-----9---9---9---9-\---------12--12--xx(repeat)----
D--5--5--5--5-----0--0--0--0-----7---7---7---7-\--9\-10--10--10--xx------------
A--5--5--5--5-----0--0--0--0-----7---7---7---7-\--9\-10--10--10--xx------------
D--5--5--5--5-----0--0--0--0-----7---7---7---7-\--9\-10--10--10--xx------------

Semi-Chorus:


E------------------------------------------------------------------------------
B--8--8--8--8--8-----15--15--15------------------------------------------------
G--7--7--7--7--7-----14--14--14---12--12--12---17--17--17----------------------
D--5--5--5--5--5-----0---0---0----x---x---x----x---x---x-----------------------
A--5--5--5--5--5-----0---0---0----10--10--10---15--15--15----------------------
D--5--5--5--5--5-----0---0---0-------------------------------------------------

"As long as your alive............."

E------------------------------------------------------------------------------
B------------------------------------------------------------------------------
G--15--15--15-\---14-14-14-\-----12--12--12--\-17--17--17----------------------
D--x---x---x--\---x--x--x--\-----x---x---x---\-x---x---x-----------------------
A--14--14--14-\---12-12-12-\-----10--10--10--\-15--15--15----------------------
D------------------------------------------------------------------------------

Back to Chorus:







Bulimic by andrew

Intro/Verse                            
e|-----------------------------------------------------------------|
B|-----------------------------------------------------------------|
G|---8-8-8-9-8-8--8-8-9-8------------------------------------------|
D|---7-7-7-7-7-7--7-7-7-7---13-13-13-14-13--13-13-13-14-13---------|
A|---7-7-7-7-7-7--7-7-7-7---11-11-11-11-11--11-11-11-11-11---------|
D|---7-7-7-7-7-7--7-7-7-7---11-11-11-11-11--11-11-11-11-11---------|
                                                            
Chorus                    
e|--0-0------0-0------0-------0--0-------0--0-------0--0-----------|
B|--0-0------0-0------0-------0--0-------0--0-------0--0-----------|
G|--9-9------9-9------9-9----13-13------13-13------13-13-----------|
D|--7-7------7-7------7-7----11-11------11-11------11-11-----------|
A|--7-7------7-7------7-7----11-11------11-11------11-11-----------|
D|--7-7------7-7------7-7----11-11------11-11------11-11-----------| 
 
Bridge
e|--0--0--0------------------0---0----0----0-----0----------0------|
B|--0--0----0---0---0--0--------0---0----0-----0-----0--0-------0--|
G|--8--9------9---8--8---8-----9---8---9-----8----8------9----8----|
D|-------------------------9---------------------------------------|
A|-----------------------------------------------------------------|
D|-----------------------------------------------------------------|








Say Days Ago by Thienskater
e-0-0-----------0-0-0-0-0-----------------------------------------------|
B-0-0-----------0-0-0-0-0-----------------------------------------------|
G-0-0-7*-7*-7*--0-0-0-0-0--7-7-7~--7-7-7~--7-7-7~-7-7-7~----------------|
D-----7*-7*-7*--0-0--------7-7-7~--7-7-7~--7-7-7~-7-7-7~----------------|
A-----7*-7*-7*--0-0--------7-7-7~--7-7-7~--7-7-7~-7-7-7~----------------|
D-----7*-7*-7*--0-0-----------------------------------------------------|

e-----------------------------------------------------------------------|
B-----------------------------------------------------------------------|
G-x-x-7-x-x-x-7-x-7-x-x-7-x-x-7-x-x-x-7-x-7------x-x-x-x----------------|
D-x-x-7-x-x-x-7-x-7-x-x-7-x-x-7-x-x-x-7-x-7-(x2)-x-x-x-x----------------|
A-0-0-7-0-0-0-7-0-7-0-0-7-0-0-7-0-0-0-7-0-7------x-x-x-x----------------|
D-0-0-0-0-0-0-0-0-0-0-0-0-0-0-0-0-0-0-0-0-0------x-x-x-x----------------|

Verse
      
e------------------------------------------------------------x-x-x-x-x--|
B----8-8-8-8-8-8-8-8-8-8-8-8-8-8-8-8-8-8-8-8-8-8-8-8-8-8-8-8-8-8-8-8-8--|
G------------------------------------------------------------0-0-0-0-0--|
D-----------------------------------------------------------------------|
A-----------------------------------------------------------------------|
D-----------------------------------------------------------------------|
  
Post Verse
e-----------------------------------------------------------------------|
B-----------------------------------------------------------------------|
G-9-9-9-9-9-9-9-11-11-11-11-11-11-11-11-9-9-9-9-9-9-9-10-10-10-10-10-10-|
D-x-x-x-x-x-x-x-x--x--x--x--x--x--x--x--x-x-x-x-x-x-x--x--x--x--x--x—x--|
A-7-7-7-7-7-7-7-9--9--9--9--9--9--9--9--7-7-7-7-7-7-7-12-12-12-12-12-12-|
D-----------------------------------------------------------------------|

Post Verse: Continued…
e-----------------------------------------------------------------------|
B-----------------------------------------------------------------------|
G-9-9-9-9-9-9-9-14-14-14-14-14-14-14-14-9-9-9-9-9-9-9-10----------------|
D-x-x-x-x-x-x-x--x--x--x--x--x--x--x--x-x-x-x-x-x-x-x--x----------------|
A-7-7-7-7-7-7-7-12—12-12-12-12-12-12-12-7-7-7-7-7-7-7-12----------------|
D-----------------------------------------------------------------------|

Pre-Chorus/Solo
e-----------------------------------------------------------------------|
B---12-15-12-13-12----12-12-12------------------------------------------|
G------------------14---------------------------------------------------|
D--------------------------------14-14-14-14----------------------------|
A-----------------------------------------------------------------------|
D-----------------------------------------------------------------------|

Chorus
e----------------------------------------------------------------------|
B----------------------------------------------------------------------|
G-9-9-9-9-9-9-9-7-7-7-7-7-7-7-5-5-5-5-5-5-5-4-4-4-4-4-4-4-4------------|
D-9-9-9-9-9-9-9-7-7-7-7-7-7-7-5-5-5-5-5-5-5-4-4-4-4-4-4-4-4------------|
A-7-7-7-7-7-7-7-5-5-5-5-5-5-5-3-3-3-3-3-3-3-2-2-2-2-2-2-2-2------------|
D-------------------------------------------2-2-2-2-2-2-2-2------------|
      Still Remember what it tastes like what it felt like…

Pre-Verse
e-----------------------------------------------------------------------|
B-----------------------------------------------------------------------|
G-x-x-7-x-x-x-7-x-7-x-x-7-x-x-7-x-x-x-7-x-7---7-7-7--7-7----------------|
D-x-x-7-x-x-x-7-x-7-x-x-7-x-x-7-x-x-x-7-x-7---7-7-7--7-7----------------|
A-0-0-7-0-0-0-7-0-7-0-0-7-0-0-7-0-0-0-7-0-7---7-7-7--7-7----------------|
D-0-0-0-0-0-0-0-0-0-0-0-0-0-0-0-0-0-0-0-0-0-----------------------------|
                                            Makes.ill..
Back to Verse
Chorus
Bridge (same chords as pre-verse)
Chorus






Poetic Tragedy by Mooney
Intro/Verse (Light overdrive)
e|-----2-------2-------2----------0-(2)-----2-------2-------2---------0-(2)--|
B|------------------------------3-----------------------------------3--------|
G|---2---2---2---2---2----2---2-----------2---2---2---2---2---2---2----------|
D|-0-------0-------0--------0-----------0-------0-------0-------0------------|
A|---------------------------------------------------------------------------|
D|---------------------------------------------------------------------------|

Right Before Chorus 
e|---------------------------------------------------------------------------|
B|--3-(Let this note ring out as you increase your volume)-------------------|
G|---------------------------------------------------------------------------|
D|---------------------------------------------------------------------------|
A|---------------------------------------------------------------------------|
D|---------------------------------------------------------------------------|

Chorus (Heavy Distortion)
e|-2-2-2-2-2-2-2-3-3-3-3-3-3-3-3-2-2-2-2-2-2-2-3-3-3-3-3-3-3-----------------|
B|-3-3-3-3-3-3-3-3-3-3-3-3-3-3-3-3-3-3-3-3-3-3-3-3-3-3-3-3-3-----------------|
G|-2-2-2-2-2-2-2-0-0-0-0-0-0-0-0-2-2-2-2-2-2-2-0-0-0-0-0-0-0-9-9-9-9-9-9-----|
D|-0-0-0-0-0-0-0-2-2-2-2-2-2-2-2-0-0-0-0-0-0-0-2-2-2-2-2-2-2-x-x-x-x-x-x-----|
A|-0-0-0-0-0-0-0-2-2-2-2-2-2-2-2-0-0-0-0-0-0-0-2-2-2-2-2-2-2-7-7-7-7-7-7-----|
D|-0-0-0-0-0-0-0-2-2-2-2-2-2-2-2-0-0-0-0-0-0-0-2-2-2-2-2-2-2-----------------|

e|-2-2-2-2-2-2-2-3-3-3-3-3-3-3-3-2-2-2-2-2-2-2-3-3-3-3-3-3-3--|
B|-3-3-3-3-3-3-3-3-3-3-3-3-3-3-3-3-3-3-3-3-3-3-3-3-3-3-3-3-3--|
G|-2-2-2-2-2-2-2-0-0-0-0-0-0-0-0-2-2-2-2-2-2-2-0-0-0-0-0-0-0--|
D|-0-0-0-0-0-0-0-2-2-2-2-2-2-2-2-0-0-0-0-0-0-0-2-2-2-2-2-2-2--|
A|-0-0-0-0-0-0-0-2-2-2-2-2-2-2-2-0-0-0-0-0-0-0-2-2-2-2-2-2-2--|
D|-0-0-0-0-0-0-0-2-2-2-2-2-2-2-2-0-0-0-0-0-0-0-2-2-2-2-2-2-2--|

Bridge
e|-0-0-0-0-0-0-0-0-3-3-3-3-3-3-3-3-0-0-0-0-0-0-0-0-3-3-3-3-3-3-3-3-3-3-3-----|
B|-2-2-2-2-2-2-2-2-3-3-3-3-3-3-3-3-2-2-2-2-2-2-2-2-3-3-3-3-3-3-3-3-3-3-3-----|
G|-2-2-2-2-2-2-2-2-0-0-0-0-0-0-0-0-2-2-2-2-2-2-2-2-0-0-0-0-0-0-0-0-0-0-0-----|
D|-2-2-2-2-2-2-2-2-2-2-2-2-2-2-2-2-2-2-2-2-2-2-2-2-2-2-2-2-2-2-2-2-2-2-2-----|
A|-0-0-0-0-0-0-0-0-2-2-2-2-2-2-2-2-0-0-0-0-0-0-0-0-2-2-2-2-2-2-2-2-2-2-2-----|
D|-----------------2-2-2-2-2-2-2-2-----------------2-2-2-2-2-2-2-2-2-2-2-----|








Buried Myself Alive by unregistered

E||--------------------------------------------------|
B||--------------------------------------------------|
G||--------------------------------------------------|
D||--5--5--5--5--5--5--5--5--5--5--5--5--5--5--5--5--|
A||--5--5--5--5--5--5--5--5--5--5--5--5--5--5--5--5--|
D||--5--5--5--5--5--5--5--5--5--5--5--5--5--5--5--5--|


                                                           
----------------------------------------------------------|
----------------------------------------------------------|
--------------------------11--11--11--11--11--11--11--11--|
--5--5--5--5--5--5--5--5--x---x---x---x---x---x---x---x---|
--5--5--5--5--5--5--5--5--9---9---9---9---9---9---9---9---|
--5--5--5--5--5--5--5--5----------------------------------|


                                                   
--------------------------------------------------|
--------------------------------------------------|
--------------------------------------------------|
--2--2--2--2--2--2--2--2--2--2--2--2--2--2--2--2--|
--2--2--2--2--2--2--2--2--2--2--2--2--2--2--2--2--|
--2--2--2--2--2--2--2--2--2--2--2--2--2--2--2--2--|


                                                   
--------------------------------------------------|
--------------------------------------------------|
--------------------------------------------------|
--2--2--2--2--2--2--2--2--2--2--2--2--2--2--2--2--|
--2--2--2--2--2--2--2--2--2--2--2--2--2--2--2--2--|
--2--2--2--2--2--2--2--2--2--2--2--2--2--2--2--2--|


                                                   
--------------------------------------------------|
--------------------------------------------------|
--5--5--5--5--5--5--5--5--5--5--5--5--5--5--5--5--|
--5--5--5--5--5--5--5--5--5--5--5--5--5--5--5--5--|
--3--3--3--3--3--3--3--3--3--3--3--3--3--3--3--3--|
--------------------------------------------------|


                                                   
--------------------------------------------------|
--------------------------------------------------|
--7--7--7--7--7--7--7--7--7--7--7--7--7--7--7--7--|
--7--7--7--7--7--7--7--7--7--7--7--7--7--7--7--7--|
--5--5--5--5--5--5--5--5--5--5--5--5--5--5--5--5--|
--------------------------------------------------|


                                                     
|---------------------------------------------------|
|---------------------------------------------------|
|*--------------------------------------------------|
|*--5-----5-----5-----5-----5-----5-----5-----5-----|
|------5-----5-----5-----5-----5-----5-----5-----5--|
|---------------------------------------------------|


                                                   
--------------------------------------------------|
--------------------------------------------------|
--------------------------------------------------|
--5-----5-----5-----5-----5-----5-----5-----5-----|
-----5-----5-----5-----5-----5-----5-----5-----5--|
--------------------------------------------------|


                                                   
--------------------------------------------------|
--------------------------------------------------|
--------------------------------------------------|
--2-----2-----2-----2-----2-----2-----2-----2-----|
-----2-----2-----2-----2-----2-----2-----2-----2--|
--------------------------------------------------|


                                                   
--------------------------------------------------|
--------------------------------------------------|
--------------------------------------------------|
--2-----2-----2-----2-----2-----2-----2-----2-----|
-----2-----2-----2-----2-----2-----2-----2-----2--|
--------------------------------------------------|


                                                   
--------------------------------------------------|
--------------------------------------------------|
--5-----5-----5-----5-----5-----5-----5-----5-----|
-----5-----5-----5-----5-----5-----5-----5-----5--|
--------------------------------------------------|
--------------------------------------------------|


                                                   
--------------------------------------------------|
--------------------------------------------------|
--------------------------------------------------|
--0-----0-----0-----0-----0-----0-----0-----0-----|
-----0-----0-----0-----0-----0-----0-----0-----0--|
--------------------------------------------------|


                                                   
--------------------------------------------------|
--------------------------------------------------|
--------------------------------------------------|
--5-----5-----5-----5-----5-----5-----5-----5-----|
-----5-----5-----5-----5-----5-----5-----5-----5--|
--------------------------------------------------|


                                                     
---------------------------------------------------||
---------------------------------------------------||
--------------------------------------------------*||
--5--5--5--5--5--5--5--5--5--5--5--5--5--5--5--5--*||
--5--5--5--5--5--5--5--5--5--5--5--5--5--5--5--5---||
---------------------------------------------------||


                                                   
--------------------------------------------------|
--------------------------------------------------|
--------------------------------------------------|
--5--5--5--5--5--5--5--5--5--5--5--5--5--5--5--5--|
--5--5--5--5--5--5--5--5--5--5--5--5--5--5--5--5--|
--5--5--5--5--5--5--5--5--5--5--5--5--5--5--5--5--|


                                                           
----------------------------------------------------------|
----------------------------------------------------------|
--------------------------11--11--11--11--11--11--11--11--|
--5--5--5--5--5--5--5--5--x---x---x---x---x---x---x---x---|
--5--5--5--5--5--5--5--5--9---9---9---9---9---9---9---9---|
--5--5--5--5--5--5--5--5----------------------------------|


                                                   
--------------------------------------------------|
--------------------------------------------------|
--------------------------------------------------|
--2--2--2--2--2--2--2--2--2--2--2--2--2--2--2--2--|
--2--2--2--2--2--2--2--2--2--2--2--2--2--2--2--2--|
--2--2--2--2--2--2--2--2--2--2--2--2--2--2--2--2--|


                                                   
--------------------------------------------------|
--------------------------------------------------|
--------------------------------------------------|
--2--2--2--2--2--2--2--2--2--2--2--2--2--2--2--2--|
--2--2--2--2--2--2--2--2--2--2--2--2--2--2--2--2--|
--2--2--2--2--2--2--2--2--2--2--2--2--2--2--2--2--|


                                                   
--------------------------------------------------|
--------------------------------------------------|
--5--5--5--5--5--5--5--5--5--5--5--5--5--5--5--5--|
--5--5--5--5--5--5--5--5--5--5--5--5--5--5--5--5--|
--3--3--3--3--3--3--3--3--3--3--3--3--3--3--3--3--|
--------------------------------------------------|


                                                   
--------------------------------------------------|
--------------------------------------------------|
--7--7--7--7--7--7--7--7--7--7--7--7--7--7--7--7--|
--7--7--7--7--7--7--7--7--7--7--7--7--7--7--7--7--|
--5--5--5--5--5--5--5--5--5--5--5--5--5--5--5--5--|
--------------------------------------------------|


                                                   
--------------------------------------------------|
--------------------------------------------------|
--------------------------------------------------|
--5-----5-----5-----5-----5-----5-----5-----5-----|
-----5-----5-----5-----5-----5-----5-----5-----5--|
--------------------------------------------------|


                                                   
--------------------------------------------------|
--------------------------------------------------|
--------------------------------------------------|
--5-----5-----5-----5-----5-----5-----5-----5-----|
-----5-----5-----5-----5-----5-----5-----5-----5--|
--------------------------------------------------|


                                                   
--------------------------------------------------|
--------------------------------------------------|
--------------------------------------------------|
--2-----2-----2-----2-----2-----2-----2-----2-----|
-----2-----2-----2-----2-----2-----2-----2-----2--|
--------------------------------------------------|


                                                   
--------------------------------------------------|
--------------------------------------------------|
--------------------------------------------------|
--2-----2-----2-----2-----2-----2-----2-----2-----|
-----2-----2-----2-----2-----2-----2-----2-----2--|
--------------------------------------------------|


                                                   
--------------------------------------------------|
--------------------------------------------------|
--5-----5-----5-----5-----5-----5-----5-----5-----|
-----5-----5-----5-----5-----5-----5-----5-----5--|
--------------------------------------------------|
--------------------------------------------------|


                                                   
--------------------------------------------------|
--------------------------------------------------|
--------------------------------------------------|
--0-----0-----0-----0-----0-----0-----0-----0-----|
-----0-----0-----0-----0-----0-----0-----0-----0--|
--------------------------------------------------|


                                                   
--------------------------------------------------|
--------------------------------------------------|
--------------------------------------------------|
--5-----5-----5-----5-----5-----5-----5-----5-----|
-----5-----5-----5-----5-----5-----5-----5-----5--|
--------------------------------------------------|


                                                   
--------------------------------------------------|
--------------------------------------------------|
--------------------------------------------------|
--5--5--5--5--5--5--5--5--5--5--5--5--5--5--5--5--|
--5--5--5--5--5--5--5--5--5--5--5--5--5--5--5--5--|
--------------------------------------------------|


                                                   
--------------------------------------------------|
--------------------------------------------------|
--------------------------------------------------|
--5--5--5--5--5--5--5--5--5--5--5--5--5--5--5--5--|
--5--5--5--5--5--5--5--5--5--5--5--5--5--5--5--5--|
--5--5--5--5--5--5--5--5--5--5--5--5--5--5--5--5--|


                                                           
----------------------------------------------------------|
----------------------------------------------------------|
--------------------------11--11--11--11--11--11--11--11--|
--5--5--5--5--5--5--5--5--x---x---x---x---x---x---x---x---|
--5--5--5--5--5--5--5--5--9---9---9---9---9---9---9---9---|
--5--5--5--5--5--5--5--5----------------------------------|


                                                   
--------------------------------------------------|
--------------------------------------------------|
--------------------------------------------------|
--2--2--2--2--2--2--2--2--2--2--2--2--2--2--2--2--|
--2--2--2--2--2--2--2--2--2--2--2--2--2--2--2--2--|
--2--2--2--2--2--2--2--2--2--2--2--2--2--2--2--2--|


                                                   
--------------------------------------------------|
--------------------------------------------------|
--------------------------------------------------|
--2--2--2--2--2--2--2--2--2--2--2--2--2--2--2--2--|
--2--2--2--2--2--2--2--2--2--2--2--2--2--2--2--2--|
--2--2--2--2--2--2--2--2--2--2--2--2--2--2--2--2--|


                                                   
--------------------------------------------------|
--------------------------------------------------|
--5--5--5--5--5--5--5--5--5--5--5--5--5--5--5--5--|
--5--5--5--5--5--5--5--5--5--5--5--5--5--5--5--5--|
--3--3--3--3--3--3--3--3--3--3--3--3--3--3--3--3--|
--------------------------------------------------|


                                                                        
--------------------------------------------------||-------------------|
--------------------------------------------------||-------------------|
--7--7--7--7--7--7--7--7--7--7--7--7--7--7--7--7--||*------------------|
--7--7--7--7--7--7--7--7--7--7--7--7--7--7--7--7--||*--2----2--2--2----|
--5--5--5--5--5--5--5--5--5--5--5--5--5--5--5--5--||---2----2--2--2----|
--------------------------------------------------||---2----2--2--2----|


                                                                              
------------------|------------------|-------------------||------------------|
------------------|------------------|-------------------||------------------|
------------------|------------------|------------------*||------------------|
--0----0--0--0----|--5----5--5--5----|--5----5--5--5----*||--5----5--5--5----|
--0----0--0--0----|--3----3--3--3----|--3----3--3--3-----||--3----3--3--3----|
--0----0--0--0----|------------------|-------------------||------------------|


                                                                 
------------------|----------------------|----------------------|
------------------|----------------------|----------------------|
------------------|--12----12--12--12----|--12----12--12--12----|
--5----5--5--5----|--x-----x---x---x-----|--x-----x---x---x-----|
--3----3--3--3----|--10----10--10--10----|--10----10--10--10----|
------------------|----------------------|----------------------|


                                                                       
----------------------|----------------------||-----------------------|
----------------------|----------------------||-----------------------|
--12----12--12--12----|--12----12--12--12----||*--12----12--12--12----|
--x-----x---x---x-----|--x-----x---x---x-----||*--x-----x---x---x-----|
--10----10--10--10----|--10----10--10--10----||---10----10--10--10----|
----------------------|----------------------||-----------------------|


                                                                     
----------------------|----------------------|----------------------|
----------------------|----------------------|----------------------|
--12----12--12--12----|--12----12--12--12----|--14----14--14--14----|
--x-----x---x---x-----|--x-----x---x---x-----|--x-----x---x---x-----|
--10----10--10--10----|--10----10--10--10----|--12----12--12--12----|
----------------------|----------------------|----------------------|


                                                                 
----------------------|----------------------|------------------|
----------------------|----------------------|------------------|
--12----12--12--12----|--11----11--11--11----|--7----7--7--7----|
--x-----x---x---x-----|--x-----x---x---x-----|------------------|
--10----10--10--10----|--9-----9---9---9-----|--5----5--5--5----|
----------------------|----------------------|------------------|


                   2x                                              
-------------------||----------------------|----------------------|
-------------------||----------------------|----------------------|
--7----7--7--7----*||--12----12--12--12----|--12----12--12--12----|
------------------*||--x-----x---x---x-----|--x-----x---x---x-----|
--5----5--5--5-----||--10----10--10--10----|--10----10--10--10----|
-------------------||----------------------|----------------------|


                                                                           
----------------------|----------------------|----------------------------|
----------------------|----------------------|----------------------------|
--12----12--12--12----|--12----12--12--12----|--12----12--12--12----12----|
--x-----x---x---x-----|--x-----x---x---x-----|--x-----x---x---x-----x-----|
--10----10--10--10----|--10----10--10--10----|--10----10--10--10----10----|
----------------------|----------------------|----------------------------|


                                   
----------------------------------|
----------------------------------|
--12--12--12--12--12--12--12--12--|
--x---x---x---x---x---x---x---x---|
--10--10--10--10--10--10--10--10--|
----------------------------------|


                                                     
|---------------------------------------------------|
|---------------------------------------------------|
|*--------------------------------------------------|
|*--5--5--5--5--5--5--5--5--5--5--5--5--5--5--5--5--|
|---5--5--5--5--5--5--5--5--5--5--5--5--5--5--5--5--|
|---5--5--5--5--5--5--5--5--5--5--5--5--5--5--5--5--|


                                                           
----------------------------------------------------------|
----------------------------------------------------------|
--------------------------11--11--11--11--11--11--11--11--|
--5--5--5--5--5--5--5--5--x---x---x---x---x---x---x---x---|
--5--5--5--5--5--5--5--5--9---9---9---9---9---9---9---9---|
--5--5--5--5--5--5--5--5----------------------------------|


                                                   
--------------------------------------------------|
--------------------------------------------------|
--------------------------------------------------|
--2--2--2--2--2--2--2--2--2--2--2--2--2--2--2--2--|
--2--2--2--2--2--2--2--2--2--2--2--2--2--2--2--2--|
--2--2--2--2--2--2--2--2--2--2--2--2--2--2--2--2--|


                                                   
--------------------------------------------------|
--------------------------------------------------|
--------------------------------------------------|
--2--2--2--2--2--2--2--2--2--2--2--2--2--2--2--2--|
--2--2--2--2--2--2--2--2--2--2--2--2--2--2--2--2--|
--2--2--2--2--2--2--2--2--2--2--2--2--2--2--2--2--|


                                                   
--------------------------------------------------|
--------------------------------------------------|
--5--5--5--5--5--5--5--5--5--5--5--5--5--5--5--5--|
--5--5--5--5--5--5--5--5--5--5--5--5--5--5--5--5--|
--3--3--3--3--3--3--3--3--3--3--3--3--3--3--3--3--|
--------------------------------------------------|


                                                     
---------------------------------------------------||
---------------------------------------------------||
--7--7--7--7--7--7--7--7--7--7--7--7--7--7--7--7--*||
--7--7--7--7--7--7--7--7--7--7--7--7--7--7--7--7--*||
--5--5--5--5--5--5--5--5--5--5--5--5--5--5--5--5---||
---------------------------------------------------||


                                                    
---------------------------------------------------|
---------------------------------------------------|
*--------------------------------------------------|
*--5-----5-----5-----5-----5-----5-----5-----5-----|
------5-----5-----5-----5-----5-----5-----5-----5--|
---------------------------------------------------|


                                                     
---------------------------------------------------||
---------------------------------------------------||
--------------------------------------------------*||
--5--5--5--5--5--5--5--5--5--5--5--5--5--5--5--5--*||
--5--5--5--5--5--5--5--5--5--5--5--5--5--5--5--5---||
--------------------------------------5--5--5--5---||


                                                   
--------------------------------------------------|
--------------------------------------------------|
--------------------------------------------------|
--5-----5-----5-----5-----5-----5-----5-----5-----|
-----5-----5-----5-----5-----5-----5-----5-----5--|
--------------------------------------------------|


                                                    
--------------------------------------------------||
--------------------------------------------------||
--------------------------------------------------||
--5-----5-----5-----5-----5-----5-----5-----5-----||
-----5-----5-----5-----5-----5-----5-----5-----5--||
--------------------------------------------------||






Box full Of Sharp Objects by unregistered

Intro
|-----------------------------------------------------------------|
|-----------------------------------------------------------------|
|-----------------------------------------------9--9--9--9--9--9--|
|-4-4-4/7-7-7-7--4-4-4\2-2-2-2--4--4-4/7-7-7-7--x--x--x--x--x--x--|
|-4-4-4/7-7-7-7--4-4-4\2-2-2-2--4--4-4/7-7-7-7--7--7--7--7--7--7--|
|-4-4-4/7-7-7-7--4-4-4\2-2-2-2--4--4-4/7-7-7-7--------------------|

|-----------------------------------------------------------------|
|-----------------------------------------------------------------|
|---------8-8------------------8-8----------8-8-------------------|
|-----6-6-----6-6-x-x------6-6----------6-6-----6-6--4--4--4------|
|-7-7------------------7-7----------7-7--------------4--4--4------|
|----------------------------------------------------4--4--4------|


Verse 1 (0:12)
|-----------------------------------|
|-----------------------------------|
|---------8-8------------------8-8--|
|-----6-6-----6-6-x-x------6-6------| x3
|-7-7------------------7-7----------|            
|-----------------------------------|

|-----------------------------------|
|-----------------------------------|
|----------8-8-8-8-8-8-8------------|
|-----6-6--6-6-6-6-6-6-6------------| x1
|-7-7------7-7-7-7-7-7-7------------|
|-----------------------------------|


Fill (0:20)
|--------------------------------------------------------------------|
|--------------------------------------------------------------------|
|-----8~---------------8------8~-------------------------------------|
|---6----6---6-----6-6------6----6-----------------------------------|
|-7--------7-----7--------7------------------------------------------|
|--------------------------------------------------------------------|


Chorus 1 (0:30)
1X
|--------------------------------------------------------------------|
|--------------------------------------------------------------------|
|--------9-9-9-9-9-9-9-9---------1111111111111111--------------------|
|-4-4-4--x-x-x-x-x-x-x-x--7-7-7---x-x-x-x-x-x-x-x--------------------|
|-4-4-4--7-7-7-7-7-7-7-7--7-7-7---9-9-9-9-9-9-9-9--------------------|
|-4-4-4-------------------7-7-7--------------------------------------|

3X
|--------------------------------------------------------------------|
|--------------------------------------------------------------------|
|--------9-9-9-9-9-9-9-9---------1111111111111111--------------------|
|-4-4-4--9-9-9-9-9-9-9-9--7-7-7--1111111111111111--------------------|
|-4-4-4--7-7-7-7-7-7-7-7--7-7-7---9-9-9-9-9-9-9-9--------------------|
|-4-4-4-------------------7-7-7--------------------------------------|


Verse 2 (0:46) - no guitar


Fill (1:03)
|--------------------------------------------------------------------|
|--------------------------------------------------------------------|
|-----8~---------------8------8~---------------8---------------------|
|---6----6---6-----6-6------6----6---6-----6-6---6-------------------|
|-7--------7-----7--------7--------7-----7---------------------------|
|--------------------------------------------------------------------|


Chorus 2 (1:12)
|--------------------------------------------------------------------|
|--------------------------------------------------------------------|
|--------8--8--8---------9-9-9-9-9-9-9-9---------1111111111111111----|
|-7-7-7--x--x--x--4-4-4--x-x-x-x-x-x-x-x--7-7-7---x-x-x-x-x-x-x-x----|
|-7-7-7--6--6--6--4-4-4--7-7-7-7-7-7-7-7--7-7-7---9-9-9-9-9-9-9-9----|
|-7-7-7-----------4-4-4-------------------7-7-7----------------------|

|-----------------------------------------
|-----------------------------------------
|--------9-9-9-9-9-9-9-9---------8--8--8--
|-4-4-4--9-9-9-9-9-9-9-9--7-7-7--x--x--x--
|-4-4-4--7-7-7-7-7-7-7-7--7-7-7--6--6--6--
|-4-4-4-------------------7-7-7-----------

--------------------------------------------------|
--------------------------------------------------|
-------9-9-9-9-9-9-9-9---------1111111111111111---|
4-4-4--x-x-x-x-x-x-x-x--7-7-7---x-x-x-x-x-x-x-x---|
4-4-4--7-7-7-7-7-7-7-7--7-7-7---9-9-9-9-9-9-9-9---|
4-4-4-------------------7-7-7---------------------|

Interlude (1:26)
|-----|
|-----|
|-8---|keep strumming up and down a bunch of times
|-----|
|-----|
|-----|


Fill (1:46)
|-----------------------------------|
|-----------------------------------|
|-----------------------------------|
|-4-4-4/7-7-7-7--4-4-4\2-2-2-2------|
|-4-4-4/7-7-7-7--4-4-4\2-2-2-2------|
|-4-4-4/7-7-7-7--4-4-4\2-2-2-2------|


Verse 3 (1:50)
|-----------------------------------|
|-----------------------------------|
|---------8-8------------------8-8--|
|-----6-6-----6-6-x-x------6-6------| x3
|-7-7------------------7-7----------|            
|-----------------------------------|

|-----------------------------------|
|-----------------------------------|
|---------8-8-----------------------|
|-----6-6-----6-6-------------------| x1
|-7-7-------------------------------|            
|-----------------------------------|


Fill (1:58)
|--------------------------------------------------------------------|
|--------------------------------------------------------------------|
|-----8~---------------8------8~---------------8---------------------|
|---6----6---6-----6-6------6----6---6-----6-6---6-------------------|
|-7--------7-----7--------7--------7-----7---------------------------|
|--------------------------------------------------------------------|


Chorus 3 (2:10)
|-----------------------------------------
|-----------------------------------------
|--------9-9-9-9-9-9-9-9---------8--8--8--
|-4-4-4--9-9-9-9-9-9-9-9--7-7-7--x--x--x--
|-4-4-4--7-7-7-7-7-7-7-7--7-7-7--6--6--6--
|-4-4-4-------------------7-7-7-----------

--------------------------------------------------|
--------------------------------------------------|
-------9-9-9-9-9-9-9-9---------1111111111111111---|
4-4-4--x-x-x-x-x-x-x-x--7-7-7---x-x-x-x-x-x-x-x---|
4-4-4--7-7-7-7-7-7-7-7--7-7-7---9-9-9-9-9-9-9-9---|
4-4-4-------------------7-7-7---------------------|

End (2:50)
|-----------------------------------|
|-----------------------------------|
|-----------------------------------|
|-4-4-4\2-2-2-2---------------------|
|-4-4-4\2-2-2-2---------------------|
|-4-4-4\2-2-2-2---------------------|





Blue And Yellow by rowdy74


Chorus (And it's all in how you mix the two.....)
------------------------------------------------------------------------------
------------------------------------------------------------------------------
---10-10-10-10-10-9--9----10-10-10-10-10--------------------------------------
---0--0--0--0--0--0--0--0-8--8--8--8--8---------------------------------------
---8--8--8--8--8--7--7--0-8--8--8--8--8---------------------------------------
-0-0--0--0--0--0--0--0--0-8--8--8--8--8---------------------------------------


Bridge     (Well Your never gonna find it...)
----------------------------
----------------------------
----9------9------9------9--
----------------------------
-7-7---7-7----7-7----7-7----
----------------------------

-----------------------------
-----------------------------
----10-----10-----10-----10--
-----------------------------
-8-8---8-8----8-8----8-8-----
-----------------------------
                                                                              
Chorus (Shoulda Done Something......)
------------------------------------------------------------------------------
------------------------------------------------------------------------------
-10-10-10-10-10-12-12-12-12-12--5-5-5-5-5--5-5-5-5-5--------------------------
-8--8--8--8--8--10-10-10-10-10--0-0-0-0-0--3-3-3-3-3--------------------------
-8--8--8--8--8--10-10-10-10-10--0-0-0-0-0--3-3-3-3-3--------------------------
-8--8--8--8--8--10-10-10-10-10--0-0-0-0-0--3-3-3-3-3--------------------------

(echos time with you over and over)
------------------------------------------------------------------------------
------------------------------------------------------------------------------
------------------------------------------------------------------------------
-0-----8h9h8--8-8-8-8-8-------------------------------------------------------
-0-----8h9h8--8-8-8-8-8-------------------------------------------------------
-0-----8h9h8--8-8-8-8-8-------------------------------------------------------






Greener With Scenery by mcr_girl

Intro/Verses 
-----0----0------------------------------------------------
------------3--1-----1-----0-1----0-1----0-1----------0----
---2---2----------2-----2-----------------------2--0----0--
--------------------------------3------3------3-----0------
-0-------------0-------------------------------------------
-----------------------------------------------------------

Somwhere in between verses
-----------------------------------------------------------
-----5-----------------------------------------------------
-----5-----------------------------------------------------
-----5---5-------------------------------------------------
-----3---5-------------------------------------------------
---------3-------------------------------------------------
"change..."

CHORUS
-------------------------------------------------------------
-------------------------------------------------------------
-------------------------------------------------------------
---55555-555-55555-5-5--10----------55555-555-55555-5-5--10--
---33333-333-55555-5-5---8----------33333-333-55555-5-5---8--
-------------33333-3-3------------------------33333-3-3------
'round again, round again circles, play this game over again'

-----------------------------------------------------------
-----------------------------------------------------------
-----------------------------------------------------------
--55555-555------------------7--9--10----------------------
--33333-333------------------5--7---8----------------------
-----------------------------------------------------------
'round again, round again...cir-ce-ls...'





Noise And Kisses

   Intro:
e||-----------------------------||
b||-----------------------------||
g||*--5--5-5-5-5---5--5-5-5-5--*|| x 5
d||*---------------------------*||
a||-----------------------------||
D||-----------------------------||
   
   Verse 1:Palm Muted
e||-----------------------------------------------------------------------------
b||-----------------------------------------------------------------------------
g||-----------------------------------------------------------------------------
d||-0-0-3-3-2--0-0-3-3-2--0-0-5-5-2--0-0-5-5-2--0-0-3-3-2--0-0-3-3-2--0-0-5-5-2-
a||-----------------------------------------------------------------------------
D||-----------------------------------------------------------------------------

   -----------------------------------------------------------------------------
   -----------------------------------------------------------------------------
   -----------------------------------------------------------------------------
   -0-0-5-5-2--0-0-3-3-2--0-0-3-3-2--0-0-5-5-2--0-0-2-5-2--0-0-3-3-2--0-0-3-3-2-
   -----------------------------------------------------------------------------
   -----------------------------------------------------------------------------

   -----------------------||
   -----------------------||
   -----------------------||
   -0-0-5-5-2--0-0-5-5-2--||
   -----------------------||
   -----------------------||

   Bridge:
e||--------------------||
b||--------------------||
g||--------------------||
d||--3-----------------||
a||--3-----------------||
D||--3-----------------||

   Verse 2:Palm Muted
e||-----------------------------------------------------------------------------
b||-----------------------------------------------------------------------------
g||-----------------------------------------------------------------------------
d||-0-0-3-3-2--0-0-3-3-2--0-0-5-5-2--0-0-5-5-2--0-0-3-3-2--0-0-3-3-2--0-0-5-5-2-
a||-----------------------------------------------------------------------------
D||-----------------------------------------------------------------------------

   -----------------------------------------------------------------------------
   -----------------------------------------------------------------------------
   -----------------------------------------------------------------------------
   -0-0-2-5-2--0-0-3-3-2--0-0-3-3-2--0-0-5-5-2--0-0-5-5-2--0-0-3-3-2--0-0-3-3-2-
   -----------------------------------------------------------------------------
   -----------------------------------------------------------------------------

   -----------------||
   -----------------||
   -----------------||
   --5-5--5--5-5-5--||
   --5-5--5--5-5-5--||
   --5-5--5--5-5-5--||

   Chorus 1:
e||--------------||
b||--------------||
g||*------------*||
d||*-3--7--3--5-*||
a||--3--7--3--5--||
D||--3--7--3--5--||

   Verse 3:Palm Muted
e||-----------------------------------------------------------------------------
b||-----------------------------------------------------------------------------
g||-----------------------------------------------------------------------------
d||-0-0-3-3-2--0-0-3-3-2--0-0-2-5-2--0-0-5-5-2--0-0-3-3-2--0-0-3-3-2--0-0-5-5-2-
a||-----------------------------------------------------------------------------
D||-----------------------------------------------------------------------------

   -----------------------------------------------------------------------------
   -----------------------------------------------------------------------------
   -----------------------------------------------------------------------------
   -0-0-2-5-2--0-3-3-2--0-0-3-3-2--0-0-2-5-2--0-0-2-5-2--0-0-3-3-2--0-0-3-3-2-5-
   ---------------------------------------------------------------------------5-
   ---------------------------------------------------------------------------5-

   Chorus 2:
e||--------------||-||-----||
b||--------------||-||-----||
g||*------------*||-||-----||
d||*-3--7--3--5-*||-||--5--||
a||--3--7--3--5--||-||--5--||
D||--3--7--3--5--||-||--5--||

  Interlude:
e||-----------------------------------------||     ||-------------------------||
b||-----------------------------------------||     ||-------------------------||
g||*---------------------------------------*|| x 4 ||*-----------------------*||
d||*-7--7-7-7-7--7---3--3-3-3-3--3--0-0-0-0*||     ||*-5--5-5-5-5--5--5-5-5-5*||
a||--7--7-7-7-7--7---3--3-3-3-3--3--0-0-0-0-||     ||--5--5-5-5-5--5--5-5-5-5-||
D||--7--7-7-7-7--7---3--3-3-3-3--3--0-0-0-0-||     ||--5--5-5-5-5--5--5-5-5-5-||

   Verse 4:Palm Muted
e||-----------------------------------------------------------------------------
b||-----------------------------------------------------------------------------
g||-----------------------------------------------------------------------------
d||-0-0-3-3-2--0-0-3-3-2--0-0-2-5-2--0-0-5-5-2--0-0-3-3-2--0-0-3-3-2--0-0-5-5-2-
a||-----------------------------------------------------------------------------
D||-----------------------------------------------------------------------------

   -----------------------------------------------------------------------------
   -----------------------------------------------------------------------------
   -----------------------------------------------------------------------------
   -0-0-2-5-2--0-0-3-3-2--0-0-3-3-2--0-0-2-5-2--0-0-5-5-2--0-0-3-3-2--0-0-3-3-2-
   -----------------------------------------------------------------------------
   -----------------------------------------------------------------------------

   ---||
   ---||
   ---||
   -5-||
   -5-||
   -5-||

   Chorus 3/Ending:
e||--------------||
b||--------------||
g||*------------*|| x 4
d||*-3--7--3--5-*||
a||--3--7--3--5--||
D||--3--7--3--5--||






On My Own by Iceman_2000_


Verse
C                           Em            G    C
See all those people on the ground.....wasting time.

     C    Em     G     C    Em    D/?
----------------------------------------------------------------(optional)
-----3-----3-----3-----3-----3-----3----------------------------
-----0-----0-----0-----0-----0-----2----------------------------
-----2-----2-----0-----2-----2-----0----------------------------
-----3-----2-----2-----3-----2-----2----------------------------
-----x-----x-----3-----x-----x-----x----------------------------

Pre-Chorus
D                                           C
Top of the world, I'm sitting here wishing, the things I've become....

     D     C
-----2-----3----------------------------------------------------
-----3-----3----------------------------------------------------
-----2-----0----------------------------------------------------
-----0-----2----------------------------------------------------
-----------3----------------------------------------------------
-----------x----------------------------------------------------

Chorus
C C/? Em
On my own.....

     C    C/?   Em
----------------------------------------------------------------(optional)
-----3-----3-----3----------------------------------------------
-----0-----0-----0----------------------------------------------
-----2-----4-----2----------------------------------------------
-----3-----3-----2----------------------------------------------
-----x-----x-----x----------------------------------------------

Bridge
C       Em          G  C
Yea Yea Yea.......AHHHHH (my favorite part; the orchestra rocks!)

     C    Em     G     C    Em    D/?
-----0-----0-----0-----0-----0-----0----------------------------(bring out)
-----3-----3-----3-----3-----3-----3----------------------------
-----0(4)--0(4)--0-----0(4)--0(4)--2----------------------------
-----2-----2-----0-----2-----2-----0----------------------------
-----3-----2-----2-----3-----2-----2----------------------------
-----x-----x-----3-----x-----x-----x----------------------------

Verse 2X
Pre Chorus 2X
Chorus 2X

Verse 1X
Pre Chorus 2X
Chorus 4X

Bridge 1X

Pre Chorus 2X
Chorus 4X

End on C







Pieces Mended by Pat Cahill

     Intro
E||-0-                                |-0~-
B||-4- play for about 5 seconds then  |-5~- let ring for 2 seconds
G||---                                |----
D||---                                |----
A||---                                |----
D||---                                |----

|-------------------    |------------------------     
|-------------------    |------------------------      
|-------------------    |------------------------      
|-4-4-4-4-4-x-x-x-x- x2 |-0-0-0-0-*3-*3-*3-*3-*3- x2
|-4-4-4-4-4-x-x-x-x-    |-0-0-0-0-*3-*3-*3-*3-*3-
|-4-4-4-4-4-x-x-x-x-    |-0-0-0-0-*3-*3-*3-*3-*3-

|-------------------    |------------------------     
|-------------------    |------------------------      
|-------------------    |------------------------      
|-4-4-4-4-4-x-x-x-x- x2 |-0-0-0-0-*3-*3-*3-*3-*3- x2
|-4-4-4-4-4-x-x-x-x-    |-0-0-0-0-*3-*3-*3-*3-*3-
|-4-4-4-4-4-x-x-x-x-    |-0-0-0-0-*3-*3-*3-*3-*3-
     
     
     Verse 1
|-xxxxxx--0--0-0--0-xxxxxx--0--0-0--0-xxxxxx--0--0--0--0-xxxxxx--0--0--0--0-
|-xxxxxx-10-10-9-10-xxxxxx-10-10-9-10-xxxxxx-14-14-14-14-xxxxxx-17-17-17-17-
|-xxxxxx-------9----xxxxxx-------9----xxxxxx-------14----xxxxxx-------16----
|---------------------------------------------------------------------------
|---------------------------------------------------------------------------
|---------------------------------------------------------------------------

|-xxxxxx--0--0-0--0-xxxxxx--0--0-0--0-xxxxxx--0--0--0--0-xxxxxx--0--0--0--0-
|-xxxxxx-10-10-9-10-xxxxxx-10-10-9-10-xxxxxx-14-14-14-14-xxxxxx-14-14-14-14-
|-xxxxxx-------9----xxxxxx-------9----xxxxxx-------14----xxxxxx-------14----
|---------------------------------------------------------------------------
|---------------------------------------------------------------------------
|---------------------------------------------------------------------------

     
     Chorus 1
|-0-0-0--0-0-0-0--0-0-0-0---0--0--0--0--0--0--0--0-
|-7-7-7--7-7-7-7--9-9-9-9--10-10-10-10-10-10-10-10-
|--------------------------------------------------
|-------------------------------------------------- x4
|--------------------------------------------------
|--------------------------------------------------

|-----------------                                   
|-----------------                                    
|-----------------                     --0-              
|-0-0-0-0-0-0-0-0- <- 4th time replace -10-'s with this
|-0-0-0-0-0-0-0-0-                                    
|-0-0-0-0-0-0-0-0-                                  

     
     Verse 2
|-0-------0--------0-------0-------
|-9-(x16)-7-(x16)-10-(x16)-7-(x16)-
|----------------------------------
|----------------------------------
|----------------------------------
|----------------------------------

     
     Bridge 1
|-----------------------------------------------------------
|-10-(x20)-7-(x10)-10-(x20)-7-(x10)-------------------------
|-----------------------------------16-16-16-16-16-16-16-16-
|-----------------------------------xx-xx-xx-xx-xx-xx-xx-xx-
|-----------------------------------14-14-14-14-14-14-14-14-
|-----------------------------------------------------------


     Chorus 2
|-------------------    |------------------------     
|-------------------    |------------------------      
|-------------------    |------------------------      
|-4-4-4-4-4-x-x-x-x- x2 |-0-0-0-0-*3-*3-*3-*3-*3- x2
|-4-4-4-4-4-x-x-x-x-    |-0-0-0-0-*3-*3-*3-*3-*3-
|-4-4-4-4-4-x-x-x-x-    |-0-0-0-0-*3-*3-*3-*3-*3-

|-------------------    |------------------------     
|-------------------    |------------------------      
|-------------------    |------------------------      
|-4-4-4-4-4-x-x-x-x- x2 |-0-0-0-0-*3-*3-*3-*3-*3- x2
|-4-4-4-4-4-x-x-x-x-    |-0-0-0-0-*3-*3-*3-*3-*3-
|-4-4-4-4-4-x-x-x-x-    |-0-0-0-0-*3-*3-*3-*3-*3-

     Bridge 2
|-----------------------------------------------------------
|-----------------------------------------------18-18\17-17-
|-16-------\14------\13------/16-------/18------xx----------
|-xx-(x10)--xx-(x4)--xx-(x6)--xx-(x10)--xx-(x6)-15-15/14-14-
|-14-------\12------\11------/14-------/16------------------
|-----------------------------------------------------------


     Ending
|--0-0-00--0-0-00--0-0-00--0-0-00-
|-1010-99-1010-99-1010-77-1010-77-
|--9-9-99--9-9-99--9-9-99--9-9-99-
|--------------------------------- repeat until Outtro
|---------------------------------
|---------------------------------


     Outtro - piano transcribed for guitar with clean tone
|-----------------------------------------------------------||
|-----------------------------------------------------------||
|-----------------------------------------------------------||
|-4~~----6~-7~-0~~----6~-7~-2~~----7~-6~-7~~----6~-7~-4~~~~-||
|-4~~-4~-------0~~-4~-------2~~-4~-------7~~-4~-------4~~~~-||
|-4~~----------0~~----------2~~----------7~~----------4~~~~-||





Choke Me a hidden song way at the end of Pieces Mended by 

Intro:  E                    Verse:  E   G   C   F
e|---------------------------------------------------------------------------|
B|---------------------------------------------------------------------------|
G|-------------------------------------------5-------------------------------|
D|------2-2—-2-----------------------2---5---5---3---------------------------|
A|------2-2—-2---(repeat)------------2---5---3---3----(you do the rhythm)----|
E|------2-2—-2-----------------------2---5-------3---------------------------|
Chorus: E                     :last rep:  F  E  D
e|---------------------------------------------------------------------------|
B|---------------------------------------------------------------------------|
G|---------------------------------------------------------------------------|
D|-----2-2--2-2---(add rhythm------------(1x only)---------------------------|
A|-----2-2--2-2-----& repeats)-----------------------------------------------|
E|-----2-2--2-2--------------------------(3)(2)(0)---------------------------|
Interlude:(clean) B                     Breakdown:
e|--------------------7--------7---------------------------------------------|
B|-----------------8------8-8------------------------------------------------|
G|--------------------------------9---------------------------(repeat)-------|
D|------------------------------------------------(repeat)-----3-2-0---------|
A|-------------------------------------------------------------3-2-0---------|
E|------------------------------------------------(3)(2)(0)----3-2-0---------|
2nd Interlude:          E            F
e|------------+9+-----(repeat)----------(repeat)-----------------------------|
B|------------+9+------------------------------------------------------------|
G|------------+9+------999999-------10-10—-10-10-10--------------------------|
D|-----------------------------------X--X---X--X--X--------------------------|
A|-----------------------------------8--8---8--8--8--------------------------|
E|---------------------------------------------------------------------------|

Thats It all the songs by the used by awesome tabbers
comments
print report bad tab
3 comments total.
0 reply
Squirrelman wrote on February 18 2006, 12:06 pm

visit my website www.athensidiots.piczo.com

0 reply
randomkiller wrote on March 11 2006, 10:15 pm

pretty good, but for noises and kisses, its not 2 on the high d, its 2 on the low d(6th string). good tab otherwise.

0 reply
shugo449 wrote on April 2 2007, 09:29 am

nice

I want to post or [tab]
guest
You may want to rate the tab now too:
select rating
Please do not post tabs as comments. Select "correction" instead!