Oops, an error
Loading. Please wait.

Silent Empire Bass Tab

615 views 1 this week
no commentswrite comment
1 2 3 4 5
please rate
Autoscroll
+/-
esc
set tempo
stop
WARNING: You are trying to view
                                    content from Ultimate-Guitar.com
                                    in an unauthorized application,
                                    which is prohibited.

                                    Please use an official Ultimate
                                    Guitar Tabs application for iPhone,
                                    iPad or Android to access legitimate
                                    chords, guitar, bass, and drum tabs
                                    from Ultimate-Guitar.com database.

                                    Type "ultimate guitar tabs" in Apple
                                    App Store's or Android Market's
                                    search to find the application.
Band: Vader
Album: De Profundis
Song: Silent Empire
by vaderfan
*** ORIGINALLY BY "Mike Reeves" ***


Rhythm Guitars transcribed on Bass Tuning (Low - High): D G C F
|-6----------------------|
|-4--7-------------------|
|----5--0-1-1-1-1--------|
|-----------------0--1-3-|

A1
|-----------------------------------------------------------------------------------------------------------------|
|-----------------------------------------------------------------------------------------------------------------|
|---------------------------------4-4-4-4-4-4-4-4-0-0-0-0-1-1-1-1-1-1-1-1---------3-3-3-3-0-0-0-0-0-0-0-0-2-2-2-2-|
|-0-0-0-0-0-0-0-0-1-1-1-1-1-1-1-1-----------------------------------------3-3-3-3---------------------------------|

A2
|-----------------|
|-----------------|
|-----------------|
|-3-3-3-3-2-2-2-2-|

Repeat A1

A3
|---------|
|---------|
|---------|
|-3-2-0-1-|

Play (A1 & A2) then repeat A1

A4
|---------|
|---------|
|---------|
|-3-1-3-5-|

|-------------------------------|-----------------------------|-----------------------|
|---------6-------------------1-|---------3-4-6-3-4-6-3-4-6---|---------6-------------|
|---------4-----------------1---|-----4---------------------6-|---------4-------------|
|-1-1-1-1---1-1-1-1-2-1-2-4-----|-1-1-2-1---------------------|-1-1-1-1---1-1-1-1-2-2-|
       [1, 2, 3, 5, 6 & 7]                    [4]                        [8]

B
|---------------------------------------------------------------------------------|
|---------------------------------------------------------------------------------|
|-4--5--6-6--6-6-6-6-5-5-6-6--6-6-6-6-5-5-6-6-6-6---------------------------------|
|-------------------------------------------------4--3--2--2-2-2-2-2-2-2-2-2-2--2-|

|--------------------------------------------------------------------------------|
|--------------------------------------------------------------------------------|
|-4--5--6-6--6-6-6-6-5-5-6-6-----------------------------------------------------|
|-----------------------------7-7-7-7-6-6-7-7-7-7-4--3--2--2-2-2--2-2-2-2-2-2--2-|

Repeat B

|-----------------------------------------------------------|
|-------------------------------------3-3-------------------|
|-4--5--6-6--6-6-6-6-5-5-6-6--6-6-6-6-----6-6-6-6-6---5---5-|
|-------------------------------------------------4---3---3-|

|-------------------------------------------------------------------------------------------------------------|
|-------------------------------------------------------------------------------------------------------------|
|-4---------------------------5-5-5-5-5-5-4-4-4-4-4-4-4-4-3-3-3-3-3-3-5---------------5-5-5-5-4-4-4-4---------|
|-2-2-2-2-2-2-3-3-3-3-3-3-3-3-----------------------------------------3-3-3-3-3-3-3-3-----------------3-3-3-3-|

|-------------------------------------------------------------------------------------------------------------|
|-------------------------------------------------------------------------------------------------------------|
|-----------------------------5-5-5-5-5-5-4-4-4-4-4-4-4-4-3-3-3-3-3-3-----------------5-5-5-5-----------------|
|-2-2-2-2-2-2-3-3-3-3-3-3-3-3-----------------------------------------3-3-3-3-3-3-3-3---------5-5-5-5-3-3-3-3-|

|-------------------------------------------------------------------------------------------------------------|
|-------------------------------------------------------------------------------------------------------------|
|-----------------------------5-5-5-5-5-5-4-4-4-4-4-4-4-4-3-3-3-3-3-3-----------------5-5-5-5-4-4-4-4---------|
|-2-2-2-2-2-2-3-3-3-3-3-3-3-3-----------------------------------------3-3-3-3-3-3-3-3-----------------3-3-3-3-|

|-----------------------------------------------------------------------------------------------------------|
|-----------------------------------------------------------------------------------------------------------|
|-----------------------------5-5-5-5-5-5-4-4-4-4-4-4-4-4-3-3-3-3-3-3-----------------5-5-5-5---------------|
|-2-2-2-2-2-2-3-3-3-3-3-3-3-3-----------------------------------------3-3-3-3-3-3-3-3---------5-5-5-5-5\4-3-|

|-------------------------------------|-------------------------|-----------------------|----------------------|
|-------------------------------------|-------------------------|-----------------------|------------------5/6-|
|---------------------1-1-1-1-1-1-1-1-|-----------------0-0-0-0-|-----------------------|------------------3/4-|
|-2-2-2-2-2-2-3-3-3-3-----------------|-2-2-2-2-3-3-3-3---------|-2-2-2-2-3-3-3-3--3--5-|-2-2-2-2-3-3-3-3------|
             [1, 3, 5 & 7]                      [2 & 6]                    [4]                    [8]

|-------------------------------------|-------------------------|-------------------------|-----------------|
|-------------------------------------|-------------------------|-------------------------|-----------------|
|---------------------1-1-1-1-1-1-1-1-|-------------------------|-----------------0-0-0-0-|-----------------|
|-2-2-2-2-2-2-3-3-3-3-----------------|-2-2-2-2-3-3-3-3-1-1-1-1-|-2-2-2-2-3-3-3-3---------|-2-2-2-2-3-3-3-3-|
             [1, 3, 5 & 7]                      [2 & 6]                    [4]                    [8]

|---------|-----5\-|
|-6-5-4---|-7-6-5--|
|-4-3-2---|-5-4-3--|
|---------|--------|
  [1 & 2]    [3]

|-----------------------------------------------------------------------|---------------------------|-----|
|-----------------------------------------------------------------------|---------------------------|-4/5-|
|----------------------3--2---------------------------------------------|-3--2----------------------|-2/3-|
|-0-0-0-0-0-0-1-1-1-1--------1-1-1-1-1-1-1-1--3--1--0-0-0-0-0-0-1-1-1-1-|-------1-1-1-1-1-1-4-4-3\1-|-----|
                                 [1 & 3]                                             [2]              [4]

C
|---------------------------------------|---------------------------------------|---------------------------------------|
|---------------------------------------|---------------------------------------|---------------------------------------|
|---------------------------------------|---------------------------------------|---------------------------------------|
|-0-0-0-0-0-0-0-0-1-1-1-1-1-1-1-1--3--1-|-0-0-0-0-0-0-0-0-1-1-1-1-1-1-1-1--4--3-|-0-0-0-0-0-0-0-0-1-1-1-1-1-1-1-1--3--4-|
                 [1 & 3]                                   [2]                                     [4]

|-----------------------------------------|-----------------------------------------------------|
|-----------------------------------------|-----------------------------------------------------|
|-----------------------------------------|-----------------------------------------------------|
|-0-0-0-0-0-0-0-0-1-1-3-3-1-1-1-1-1-1-1-1-|-0-0-0-0-0-0-0-0-1-1-3-3-1-1-1-1-1-1-3-3-3-3-4-4-4-4-|
                [1, 2 & 3]                                          [4]

|----------------------------------------------------|----------------------------------------|
|----------------------------------------------------|----------------------------------------|
|-----8-8-8-8-7-7-7-7-----7-7-7-7-7-7-7-7--------6/7-|-----8-8-8-8-7-7-7-7-7-7--------------4-|
|-0-0-----------------0-0------------------6--5------|-0-0---------------------2-5-5-5-5-4--2-|
                      [1, 2 & 3]                                         [4]

|-------------------------------------|-------------------------|-----------------------|----------------------|
|-------------------------------------|-------------------------|-----------------------|----------------------|
|-------------------------------------|-------------------------|-----------------------|------------------3\2-|
|-1-1-1-1-1-1-2-2-2-2-5-5-5-5-5-5-5-5-|-1-1-1-1-2-2-2-2-4-4-4-4-|-1-1-1-1-2-2-2-2--2--4-|-1-1-1-1-2-2-2-2------|
             [1, 3, 5 & 7]                      [2 & 6]                    [4]                     [8]

Repeat C

|-----------------------------------------|----------------------------------------|---------------------------------------|
|-----------------------------------------|-------------------------3--------------|---------------------------------------|
|-----------------------------------------|-------------------------1--------------|----------------------------------5--6-|
|-0-0-0-0-0-0-0-0-1-1-3-3-1-1-1-1-1-1-1-1-|-0-0-0-0-0-0-0-0-1-1-3-3-1--1-1-1-1-1-1-|-0-0-0-0-0-0-1-1-3-3-1-1-1-1-1-1--3--4-|
                [1 & 2]                                       [3]                                     [4]

|----------------------------------|----------------------------------------------------------------|
|-----------------4--5-------------|-------------------------------------------4-5--------6---------|
|-2---3---5/6--3--2--3--6----------|-------------------------------------5-----2-3--------6---------|
|-0---1---3/4--1--------4--3-4-3-4-|-0-0-0-0-0-0-1-1-1-1-1-1-1-1-1-1-1-1-3-0-0------0-1-3-4-----/11-|

D
|-----------------------|----------------------------|
|-----------------------|----------------------------|
|-----------------------|----------------------------|
|-0-0-0-0-0-0-0-0-0-----|-0-0-0-0-0-0--0--1--3--2--1-|

Repeat D

|-----------------------3-----2~------------|---------|
|--------------------5-----4----------------|---------|
|-------------------------------------------|---------|
|-0-0-0-0-0-0-0-0-0---------------0-1-3-2-1-|-1-3-2-1-|
                   [1 & 2]                      [3]

E
|-------------------------3-3-3-3---------2-2-2-2------------|
|-----------------5-5-5-5---------4-4-4-4--------------------|
|------------------------------------------------------------|
|-0-0-0-0-0-0-0-0----------------------------------0-1-3-2-1-|

Repeat E three more times

|--------------------------------------------------------------------|-16\-|
|--------------------------------------------------------------------|-----|
|-------------------------1-1-1-1---------0-0-0-0-0-0-0-0------------|-----|
|-0-0-0-0-0-0-0-0-3-3-3-3---------2-2-2-2-----------------0-0-1-0-1~-|-0---|
                              [1, 2 & 3]                               [4]

Under Solo:
|-----------------------------------------|-----------------------------------------|
|-----------------------------------------|-----------------------------------------|
|-----------------------------------------|-----------------------------------------|
|-0-0-0-0-0-0-0-0-1-1-3-3-1-1-1-1-1-1-1-1-|-0-0-0-0-0-0-0-0-1-1-3-3-1-1-1-1-4-4-4-4-|
               [1, 2, 3 & 4]                             [5, 6, 7 & 8]

F
|-----------------------------------------------------|
|-----------------------------------------------------|
|-------------------------2-2-2-2-2-2-2-2--3--2-------|
|-3-3-3-3-3-3-3-3-3-3-4-4------------------------3--1-|

Repeat F

|--------------------|-8-8-10-8-7------------|-8-8-11-8-7-----------|
|-------9----------9-|------------10-8-------|------------10-8-6-9~-|
|-10-11---11-10-11---|-----------------11-10-|-------------------7~-|
|--------------------|-----------------------|-------------------0--|
       [1 & 3]                  [2]                    [4]

|----------------------------------------------------|-------------------------------------------|
|----------------------------------------------------|-------------------------------------------|
|-8-8-8-8-7-7-7-7-----7-7-7-7-7-7-7-7--------6/7-----|-8-8-8-8-7-7-------------------------------|
|-----------------0-0------------------6--5------0-0-|-------------8--7--6-6-6-6-6-6--8--7--3--2-|
                      [1, 2 & 3]                                          [4]

|-----------------------------------------|----------------------------------------|
|-----------------------------------------|-------------------------3--------------|
|-----------------------------------------|-------------------------1--------------|
|-0-0-0-0-0-0-0-0-1-1-3-3-1-1-1-1-1-1-1-1-|-0-0-0-0-0-0-0-0-1-1-3-3-1--1-1-1-1-1-1-|
                [1 & 2]                                       [3]
|-------------------------------------15/16\----|
|---------------------------------------------2-|
|-------------4--5--------------5--6----------2-|
|-0-0-0-0-0-0-2--3--1-1-1-1-1-1-3--4----------0-|
comments
We did not receive enough feedback on this tab! Please rate:
1 2 3 4 5
I want to post or [tab]
guest
You may want to rate the tab now too:
select rating
Please do not post tabs as comments. Select "correction" instead!