Oops, an error
Loading. Please wait.

Different Angle Tab

ver1
ver1

Whole song

Interactive

More versions @911Tabs.com
76 views 1 this week
no commentswrite comment
1 2 3 4 5
please rate
add to favorites launch autoscroll
font size
0
reset
Autoscroll
+/-
esc
set tempo
stop
Contributor
Difficulty
Tuning
intermediate
E A D G B E
WARNING: You are trying to view
                                    content from Ultimate-Guitar.com
                                    in an unauthorized application,
                                    which is prohibited.

                                    Please use an official Ultimate
                                    Guitar Tabs application for iPhone,
                                    iPad or Android to access legitimate
                                    chords, guitar, bass, and drum tabs
                                    from Ultimate-Guitar.com database.

                                    Type "ultimate guitar tabs" in Apple
                                    App Store's or Android Market's
                                    search to find the application.
                               Different Angle                                  


                                                                Valentine Stitch
Main Guitar
     PM PM    PM  PM  PM      PM     PM  PM     PM PM PM    PM  
     E  E  E  E   E   E   E   E      E   E  E   E  E  E  E  E   
E||------------------------------|-----------------------------|
B||------------------------------|-----------------------------|
G||--------7-------------11------|----------9------------6-----|
D||--------0--------------0------|----------0------------0-----|
A||------------------------------|-----------------------------|
D||--9--9-----9--12--12------12--|--11--11-----11--7--7-----7--|
 
 
  PM PM    PM  PM  PM      PM     PM  PM     PM PM PM    PM  
  E  E  E  E   E   E   E   E      E   E  E   E  E  E  E  E   
------------------------------|-----------------------------|
------------------------------|-----------------------------|
--------7-------------11------|----------9------------6-----|
--------0--------------0------|----------0------------0-----|
------------------------------|-----------------------------|
--9--9-----9--12--12------12--|--11--11-----11--7--7-----7--|
 
 
  PM PM    PM  PM  PM      PM     PM  PM     PM PM PM    PM  
  E  E  E  E   E   E   E   E      E   E  E   E  E  E  E  E   
------------------------------|-----------------------------|
------------------------------|-----------------------------|
--------7-------------11------|----------9------------6-----|
--------0--------------0------|----------0------------0-----|
------------------------------|-----------------------------|
--9--9-----9--12--12------12--|--11--11-----11--7--7-----7--|
 
 
  PM PM    PM  PM  PM      PM     PM  PM                     
  E  E  E  E   E   E   E   E      E   E  E  E  Q      E  E   
------------------------------|-----------------------------|
------------------------------|-----------------------------|
--------7-------------11------|----------9-----9br----7-----|
--------0--------------0------|----------0---------------9--|
------------------------------|--------------------------9--|
--9--9-----9--12--12------12--|--11--11------------------9--|
 
 
  E  E  E  E  E  E  E  E     E  E  E  E  E  E  E  E   
--------------------------|--------------------------|
--------------------------|--------------------------|
--------7-----6-----------|--7-----6-----------7-----|
--L--9--0--9--0--9--7--9--|--0--9--0--9--7--9--0--9--|
--L--9-----9-----9--7--9--|-----9-----9--7--9-----9--|
--L--9-----9-----9--7--9--|-----9-----9--7--9-----9--|
 
 
  E  E  E  E  E  E  E  E     E  E  E  E  E  E  E  E   
--------------------------|--------------------------|
--------------------------|--------------------------|
--------7-----6-----------|--7-----6-----------7-----|
--L--9--0--9--0--9--7--9--|--0--9--0--9--7--9--7--5--|
--L--9-----9-----9--7--9--|-----9-----9--7--9-----5--|
--L--9-----9-----9--7--9--|-----9-----9--7--9-----5--|
 
 
  E  E  E  E  E  E  E  E     E  E  E  E  E  E  E  E   
--------------------------|--------------------------|
--------7-----7--7-----7--|--L-----7--7--------7-----|
--------7-----7--7-----7--|--L-----7--7--------7-----|
--L--5--7--5--7--7--5--7--|--L--5--7--7--5--5--7--7--|
--L--5-----5--------5-----|-----5--------5--5-----7--|
--L--5-----5--------5-----|-----5--------5--5-----7--|
 
 
  E  E  E  E  E  E  E  E     E  E  E  E  Q      E  E   
--------------------------|---------------------------|
--------------------------|---------------------------|
--------7-----7--7-----6--|--L--6--6--6--9br----7-----|
--L--7--7--7--7--7--7--7--|--L--7--7--7------------9--|
--L--7-----7--------7--7--|--L--7--7--7------------9--|
--L--7-----7--------7--7--|--L--7--7--7------------9--|
 
 
  E  E  E  E  E  E  E  E     E  E  E  E  E  E  E  E   
--------------------------|--------------------------|
--------------------------|--------------------------|
--------7-----6-----------|--7-----6-----------7-----|
--L--9--0--9--0--9--7--9--|--0--9--0--9--7--9--0--9--|
--L--9-----9-----9--7--9--|-----9-----9--7--9-----9--|
--L--9-----9-----9--7--9--|-----9-----9--7--9-----9--|
 
 
  E  E  E  E  E  E  E  E     E  E  E  E  E  E  E  E   
--------------------------|--------------------------|
--------------------------|--------------------------|
--------7-----6-----------|--7-----6-----------7-----|
--L--9--0--9--0--9--7--9--|--0--9--0--9--7--9--7--5--|
--L--9-----9-----9--7--9--|-----9-----9--7--9-----5--|
--L--9-----9-----9--7--9--|-----9-----9--7--9-----5--|
 
 
  E  E  E  E  E  E  E  E     E  E  E  E  E  E  E  E   
--------------------------|--------------------------|
--------7-----7--7-----7--|--L-----7--7--------7-----|
--------7-----7--7-----7--|--L-----7--7--------7-----|
--L--5--7--5--7--7--5--7--|--L--5--7--7--5--5--7--7--|
--L--5-----5--------5-----|-----5--------5--5-----7--|
--L--5-----5--------5-----|-----5--------5--5-----7--|
 
 
  E  E  E  E  E  E  E  E     E  E  E  E  E  E  E  E   
--------------------------|--------------------------|
--------------------------|--------------------------|
--------7-----7--7-----6--|--L--6--6--6--6--6--6--7--|
--L--7--7--7--7--7--7--7--|--L--7--7--7--7--7--7--0--|
--L--7-----7--------7--7--|--L--7--7--7--7--7--7-----|
--L--7-----7--------7--7--|--L--7--7--7--7--7--7--9--|
 
 
    Q     E    E   E   E    E    E      E   E    E   E  E  E  E  E   
|-----------------------------------|-------------------------------|
|-----------------------------------|-------------------------------|
|*--L----(7)--11---L--11--(11)---9--|---L---9---(9)--6--L--6--6--6--|
|*--L----(0)---0---L---0---(0)---0--|---L---0---(0)--0--L--0--0--0--|
|-----------------------------------|-------------------L-----------|
|---L----(9)--12---L--12--(12)--11--|---L--11--(11)--7--L--7--7--7--|
 
 
  E  E  E   E   E   E    E    E      E   E    E   Q    E  E  E   
---------------------------------|------------------------------|
---------------------------------|------------------------------|
--7--7--7--11---L--11--(11)---9--|---L---9---(9)--6----6--6--6--|
--0--0--0---0---L---0---(0)---0--|---L---0---(0)--0----0--0--0--|
---------------------------------|------------------------------|
--9--9--9--12---L--12--(12)--11--|---L--11--(11)--7----7--7--7--|
 
 
  E  E  E   E   E   E    E    E      E   E    E   Q    E  E  E   
---------------------------------|------------------------------|
---------------------------------|------------------------------|
--7--7--7--11---L--11--(11)---9--|---L---9---(9)--6----6--6--6--|
--0--0--0---0---L---0---(0)---0--|---L---0---(0)--0----0--0--0--|
---------------------------------|------------------------------|
--9--9--9--12---L--12--(12)--11--|---L--11--(11)--7----7--7--7--|
 
 
  E  E  E   E   E   E    E    E      E   E    E   Q    E  E  E   
---------------------------------|------------------------------|
---------------------------------|------------------------------|
--7--7--7--11---L--11--(11)---9--|---L---9---(9)--6----6--6--6--|
--0--0--0---0---L---0---(0)---0--|---L---0---(0)--0----0--0--0--|
---------------------------------|------------------------------|
--9--9--9--12---L--12--(12)--11--|---L--11--(11)--7----7--7--7--|
 
 
  E  E  E   E   E   E   E   E      E   E   E   E   E   E   E   E   
-------------------------------|----------------------------------|
-------------------------------|----------------------------------|
--7--7--7--11---L--11--11---9--|---L---9---9--12---L--12--12--12--|
--9--9--9--12---L--12--12--11--|---L--11--11--14---L--14--14--14--|
-------------------------------|----------------------------------|
--9--9--9--12---L--12--12--11--|---L--11--11--14---L--14--14--14--|
 
 
   E   E   E   E   E   E   E   E      E   E   E   E   E   E   E   E   
----------------------------------|----------------------------------|
----------------------------------|----------------------------------|
--11--11--11--14---L--14--14--12--|---L--12--12---9---L---9---9---9--|
--12--12--12--16---L--16--16--14--|---L--14--14--11---L--11--11--11--|
----------------------------------|----------------------------------|
--12--12--12--16---L--16--16--14--|---L--14--14--11---L--11--11--11--|
 
 
  E  E  E   E   E   E   E   E      E   E   E   E   E   E   E   E   
-------------------------------|----------------------------------|
-------------------------------|----------------------------------|
--7--7--7--11---L--11--11---9--|---L---9---9--12---L--12--12--12--|
--9--9--9--12---L--12--12--11--|---L--11--11--14---L--14--14--14--|
-------------------------------|----------------------------------|
--9--9--9--12---L--12--12--11--|---L--11--11--14---L--14--14--14--|
 
 
   E   E   E   E   E   E   E   E      E   E   E   E   E   E   E   E   
----------------------------------|----------------------------------|
----------------------------------|----------------------------------|
--11--11--11--14---L--14--14--12--|---L--12--12---9---L---9---9---9--|
--12--12--12--16---L--16--16--14--|---L--14--14--11---L--11--11--11--|
----------------------------------|----------------------------------|
--12--12--12--16---L--16--16--14--|---L--14--14--11---L--11--11--11--|
 
 
  PM PM        PM  PM             PM  PM        PM PM        
  E  E  E  E   E   E   E   E      E   E  E   E  E  E  E  E   
------------------------------|-----------------------------|
------------------------------|-----------------------------|
--------7-------------11------|----------9------------6-----|
--------0--------------0------|----------0------------0-----|
------------------------------|-----------------------------|
--9--9-----9--12--12------12--|--11--11-----11--7--7--7--9--|
 
 
               PM  PM             PM  PM        PM PM        
  E  E  E  E   E   E   E   E      E   E  E   E  E  E  E  E   
------------------------------|-----------------------------|
------------------------------|-----------------------------|
--------7-------------11------|----------9------------6-----|
--------0--------------0------|----------0------------0--5--|
------------------------------|--------------------------5--|
--L--9-----9--12--12------12--|--11--11-----11--7--7-----5--|
 
 
  E  E  E  E  E  E  E  E     E  E  E  E  E  E  E  E   
--------------------------|--------------------------|
--------------------------|--------------------------|
--------------------------|--------------------------|
--L--5--5-----5-----5-----|--5-----5-----5--5--5--7--|
--L--5--5-----5-----5-----|--5-----5-----5--5--5--7--|
--L--5--5-----5-----5-----|--5-----5-----5--5--5--7--|
 
 
  E  E  E  E  E  E  E  E     E  E  E  E  Q      E  E   
--------------------------|---------------------------|
--------------------------|---------------------------|
--------------------------|--------------9br----7-----|
--L--7--7-----7-----7-----|--7-----7---------------9--|
--L--7--7-----7-----7-----|--7-----7---------------9--|
--L--7--7-----7-----7-----|--7-----7---------------9--|
 
 
  E  E  E  E  E  E  E  E     E  E  E  E  E  E  E  E   
--------------------------|--------------------------|
--------------------------|--------------------------|
--------7-----6-----------|--7-----6-----------7-----|
--L--9--0--9--0--9--7--9--|--0--9--0--9--7--9--0--9--|
--L--9-----9-----9--7--9--|-----9-----9--7--9-----9--|
--L--9-----9-----9--7--9--|-----9-----9--7--9-----9--|
 
 
  E  E  E  E  E  E  E  E     E  E  E  E  E  E  E  E   
--------------------------|--------------------------|
--------------------------|--------------------------|
--------7-----6-----------|--7-----6-----------7-----|
--L--9--0--9--0--9--7--9--|--0--9--0--9--7--9--7--5--|
--L--9-----9-----9--7--9--|-----9-----9--7--9-----5--|
--L--9-----9-----9--7--9--|-----9-----9--7--9-----5--|
 
 
  E  E  E  E  E  E  E  E     E  E  E  E  E  E  E  E   
--------------------------|--------------------------|
--------7-----7--7-----7--|--L-----7--7--------7-----|
--------7-----7--7-----7--|--L-----7--7--------7-----|
--L--5--7--5--7--7--5--7--|--L--5--7--7--5--5--7--7--|
--L--5-----5--------5-----|-----5--------5--5-----7--|
--L--5-----5--------5-----|-----5--------5--5-----7--|
 
 
  E  E  E  E  E  E  E  E     E  E  E  E  Q      E  E   
--------------------------|---------------------------|
--------------------------|---------------------------|
--------7-----7--7-----6--|--L--6--6--6--9br----7-----|
--L--7--7--7--7--7--7--7--|--L--7--7--7------------9--|
--L--7-----7--------7--7--|--L--7--7--7------------9--|
--L--7-----7--------7--7--|--L--7--7--7------------9--|
 
 
  E  E  E  E  E  E  E  E     E  E  E  E  E  E  E  E   
--------------------------|--------------------------|
--------------------------|--------------------------|
--------7-----6-----------|--7-----6-----------7-----|
--L--9--0--9--0--9--7--9--|--0--9--0--9--7--9--0--9--|
--L--9-----9-----9--7--9--|-----9-----9--7--9-----9--|
--L--9-----9-----9--7--9--|-----9-----9--7--9-----9--|
 
 
  E  E  E  E  E  E  E  E     E  E  E  E  E  E  E  E   
--------------------------|--------------------------|
--------------------------|--------------------------|
--------7-----6-----------|--7-----6-----------7-----|
--L--9--0--9--0--9--7--9--|--0--9--0--9--7--9--7--5--|
--L--9-----9-----9--7--9--|-----9-----9--7--9-----5--|
--L--9-----9-----9--7--9--|-----9-----9--7--9-----5--|
 
 
  E  E  E  E  E  E  E  E     E  E  E  E  E  E  E  E   
--------------------------|--------------------------|
--------7-----7--7-----7--|--L-----7--7--------7-----|
--------7-----7--7-----7--|--L-----7--7--------7-----|
--L--5--7--5--7--7--5--7--|--L--5--7--7--5--5--7--7--|
--L--5-----5--------5-----|-----5--------5--5-----7--|
--L--5-----5--------5-----|-----5--------5--5-----7--|
 
 
  E  E  E  E  E  E  E  E     E  E  E  E  E  E  E  E        H        Q.     E   
--------------------------|----------------------------||---------------------|
--------------------------|----------------------------||------------------3--|
--------7-----7--7-----6--|--L--6--6--6--6--6--6--7--*-||--4--------L------2--|
--L--7--7--7--7--7--7--7--|--L--7--7--7--7--7--7--0--*-||--4--------L------4--|
--L--7-----7--------7--7--|--L--7--7--7--7--7--7-------||--2--------L------2--|
--L--7-----7--------7--7--|--L--7--7--7--7--7--7--9----||---------------------|
 
 
  W                   H        Q.     E     W                 
-------------------|---------------------|-------------------|
--L----------------|------------------3--|--L----------------|
--L----------------|--4--------L------2--|--L----------------|
--L----------------|--4--------L------4--|--L----------------|
--L----------------|--2--------L------2--|--L----------------|
-------------------|---------------------|-------------------|
 
 
  H        Q.     E     W                   H        Q.     E   
---------------------|-------------------|---------------------|
------------------3--|--L----------------|------------------3--|
--4--------L------2--|--L----------------|--4--------L------2--|
--4--------L------4--|--L----------------|--4--------L------4--|
--2--------L------2--|--L----------------|--2--------L------2--|
---------------------|-------------------|---------------------|
 
 
  W                   Q     Q     E   E   E   E    
-------------------|------------------------------|
--L----------------|--7-----7-----7---7---7---7---|
--L----------------|--9b----9b----9b--9b--9b--9b--|
--L----------------|------------------------------|
--L----------------|------------------------------|
-------------------|------------------------------|
 
 
  E   E   Q     E   E   E   E      Q     Q     E   E   E   E    
--------------------------------|------------------------------|
--L---7---7-----7---7---7---7---|--7-----7-----7---7---7---7---|
--Lb--9b--9b----9b--9b--9b--9b--|--9b----9b----9b--9b--9b--9b--|
--------------------------------|------------------------------|
--------------------------------|------------------------------|
--------------------------------|------------------------------|
 
 
  E   E   Q     E   E   E   E      Q     Q     E   E   E   E    
--------------------------------|------------------------------|
--L---7---7-----7---7---7---7---|--7-----7-----7---7---7---7---|
--Lb--9b--9b----9b--9b--9b--9b--|--9b----9b----9b--9b--9b--9b--|
--------------------------------|------------------------------|
--------------------------------|------------------------------|
--------------------------------|------------------------------|
 
 
  E   E   Q     E   E   E   E      Q     Q     E   E   E   E    
--------------------------------|------------------------------|
--L---7---7-----7---7---7---7---|--7-----7-----7---7---7---7---|
--Lb--9b--9b----9b--9b--9b--9b--|--9b----9b----9b--9b--9b--9b--|
--------------------------------|------------------------------|
--------------------------------|------------------------------|
--------------------------------|------------------------------|
 
 
  E   E   Q     Q      E  E     E  E  E  E  E  E  E  E   
-----------------------------|--------------------------|
--L---7---7------------------|--------------------------|
--Lb--9b--9b----9br----7-----|--------7-----6-----------|
--------------------------9--|--L--9--0--9--0--9--7--9--|
--------------------------9--|--L--9-----9-----9--7--9--|
--------------------------9--|--L--9-----9-----9--7--9--|
 
 
  E  E  E  E  E  E  E  E     E  E  E  E  E  E  E  E   
--------------------------|--------------------------|
--------------------------|--------------------------|
--7-----6-----------7-----|--------7-----6-----------|
--0--9--0--9--7--9--0--9--|--L--9--0--9--0--9--7--9--|
-----9-----9--7--9-----9--|--L--9-----9-----9--7--9--|
-----9-----9--7--9-----9--|--L--9-----9-----9--7--9--|
 
 
  E  E  E  E  E  E  E  E     E  E  E  E  E  E  E  E   
--------------------------|--------------------------|
--------------------------|--------7-----7--7-----7--|
--7-----6-----------7-----|--------7-----7--7-----7--|
--0--9--0--9--7--9--7--5--|--L--5--7--5--7--7--5--7--|
-----9-----9--7--9-----5--|--L--5-----5--------5-----|
-----9-----9--7--9-----5--|--L--5-----5--------5-----|
 
 
  E  E  E  E  E  E  E  E     E  E  E  E  E  E  E  E   
--------------------------|--------------------------|
--L-----7--7--------7-----|--------------------------|
--L-----7--7--------7-----|--------7-----7--7-----6--|
--L--5--7--7--5--5--7--7--|--L--7--7--7--7--7--7--7--|
-----5--------5--5-----7--|--L--7-----7--------7--7--|
-----5--------5--5-----7--|--L--7-----7--------7--7--|
 
 
  E  E  E  E  Q      E  E     E  E  E  E  E  E  E  E   
---------------------------|--------------------------|
---------------------------|--------------------------|
--L--6--6--6--9br----7-----|--------7-----6-----------|
--L--7--7--7------------9--|--L--9--0--9--0--9--7--9--|
--L--7--7--7------------9--|--L--9-----9-----9--7--9--|
--L--7--7--7------------9--|--L--9-----9-----9--7--9--|
 
 
  E  E  E  E  E  E  E  E     E  E  E  E  E  E  E  E   
--------------------------|--------------------------|
--------------------------|--------------------------|
--7-----6-----------7-----|--------7-----6-----------|
--0--9--0--9--7--9--0--9--|--L--9--0--9--0--9--7--9--|
-----9-----9--7--9-----9--|--L--9-----9-----9--7--9--|
-----9-----9--7--9-----9--|--L--9-----9-----9--7--9--|
 
 
  E  E  E  E  E  E  E  E     E  E  E  E  E  E  E  E   
--------------------------|--------------------------|
--------------------------|--------7-----7--7-----7--|
--7-----6-----------7-----|--------7-----7--7-----7--|
--0--9--0--9--7--9--7--5--|--L--5--7--5--7--7--5--7--|
-----9-----9--7--9-----5--|--L--5-----5--------5-----|
-----9-----9--7--9-----5--|--L--5-----5--------5-----|
 
 
  E  E  E  E  E  E  E  E     E  E  E  E  E  E  E  E   
--------------------------|--------------------------|
--L-----7--7--------7-----|--------------------------|
--L-----7--7--------7-----|--------7-----7--7-----6--|
--L--5--7--7--5--5--7--7--|--L--7--7--7--7--7--7--7--|
-----5--------5--5-----7--|--L--7-----7--------7--7--|
-----5--------5--5-----7--|--L--7-----7--------7--7--|
 
 
  E  E  E  E  E  E  E  E     E  E  E  E  E  E  E  E   
--------------------------|--------------------------|
--------------------------|--------------------------|
--L--6--6--6--6--6--6-----|--------7-----6-----------|
--L--7--7--7--7--7--7--9--|--L--9--0--9--0--9--7--9--|
--L--7--7--7--7--7--7--9--|--L--9-----9-----9--7--9--|
--L--7--7--7--7--7--7--9--|--L--9-----9-----9--7--9--|
 
 
  E  E  E  E  E  E  E  E     E  E  E  E  E  E  E  E   
--------------------------|--------------------------|
--------------------------|--------------------------|
--7-----6-----------7-----|--------7-----6-----------|
--0--9--0--9--7--9--0--9--|--L--9--0--9--0--9--7--9--|
-----9-----9--7--9-----9--|--L--9-----9-----9--7--9--|
-----9-----9--7--9-----9--|--L--9-----9-----9--7--9--|
 
 
  E  E  E  E  E  E  E  E     E  E  E  E  E  E  E  E   
--------------------------|--------------------------|
--------------------------|--------------------------|
--7-----6-----------7-----|--------7-----6-----------|
--0--9--0--9--7--9--0--9--|--L--9--0--9--0--9--7--9--|
-----9-----9--7--9-----9--|--L--9-----9-----9--7--9--|
-----9-----9--7--9-----9--|--L--9-----9-----9--7--9--|
 
 
  E  E  E  E  E  E  E  E     E  E  E  E  E  E  E  E   
--------------------------|--------------------------|
--------------------------|--------------------------|
--7-----6-----------7-----|--------7-----6-----------|
--0--9--0--9--7--9--0--9--|--L--9--0--9--0--9--7--9--|
-----9-----9--7--9-----9--|--L--9-----9-----9--7--9--|
-----9-----9--7--9-----9--|--L--9-----9-----9--7--9--|
 
 
  E  E  E  E  E  E  E  E     Q     Q    H          
--------------------------|----------------------||
--------------------------|----------------------||
--7-----6-----------7-----|----------------------||
--0--9--0--9--7--9--0--9--|--Ls------------------||
-----9-----9--7--9-----9--|--Ls------------------||
-----9-----9--7--9-----9--|--Ls------------------||
 
 
 
 
Duration Legend
---------------
W - whole
H - half
Q - quarter
E - 8th
S - 16th
T - 32nd
X - 64th
. - note dotted
|-n-|  - n-tuplets
 
 
Tablature Legend
----------------
L - tied note
x - dead note
g - grace note
(n) - ghost note
> - accentuded note
NH - natural harmonic
AH - artificial harmonic
TH - tapped harmonic
SH - semi harmonic
PH - pitch harmonic
h - hammer on
p - pull off
b - bend
br - bendRelease
pb - preBend
pbr - preBendRelease
brb - bendReleaseBend
\n/ - tremolo bar dip
\n - tremolo bar dive
-/n - tremolo bar Release up
/n\ - tremolo bar inverted dip
/n - tremolo bar return
-\n - tremolo bar Release down
S - shift slide
s - legato slide
/ -  slide into from below or out of upwards
\ -  slide into from above or out of downwards
~ - vibrato
W - wide vibrato
tr - tril'
TP - tremolo picking
T - tapping
S - slap
P - pop
< - fade in
^ - brush up
v - brush down

comments
We did not receive enough feedback on this tab! Please rate:
print report bad tab
1 2 3 4 5
I want to post or [tab]
guest
You may want to rate the tab now too:
select rating
Please do not post tabs as comments. Select "correction" instead!