Oops, an error
Loading. Please wait.

Kids Try This At Home Tab

75 views 1 this week
no commentswrite comment
1 2 3 4 5
please rate
add to favorites launch autoscroll
font size
0
reset
Autoscroll
+/-
esc
set tempo
stop
Contributor
WARNING: You are trying to view
                                    content from Ultimate-Guitar.com
                                    in an unauthorized application,
                                    which is prohibited.

                                    Please use an official Ultimate
                                    Guitar Tabs application for iPhone,
                                    iPad or Android to access legitimate
                                    chords, guitar, bass, and drum tabs
                                    from Ultimate-Guitar.com database.

                                    Type "ultimate guitar tabs" in Apple
                                    App Store's or Android Market's
                                    search to find the application.
                            Kids Try This At Home                               


                                                                Valentine Stitch
Main Gtr
     |--3--|        |--3--|  |--3--|     |--3--|  |--3--|  |--3--|  |--3--|   
     E  E  E  Q     E  E  E  E  E  E     E  E  E  E  E  E  E  E  E  E  E  E   
E||-----------------------------------|--------------------------------------|
B||-----------------------------------|--------------------------------------|
G||-----------6b----------------------|-----------6--------------------------|
D||-----------------------------------|--------------------7--------9-----9--|
A||--9--9--9--------9--9--9--9--9--9--|--9--9--9-----9--9-----9--9-----9-----|
E||-----------------------------------|--------------------------------------|
 
 
  |--3--|        |--3--|  |--3--|     |--3--|  |--3--|  |--3--|  |--3--|   
  E  E  E  Q     E  E  E  E  E  E     E  E  E  E  E  E  E  E  E  E  E  E   
-----------------------------------|--------------------------------------|
-----------------------------------|--------------------------------------|
-----------------------------------|--------------------------------------|
-----------9b----------------------|-----------9--------7--------9-----7--|
--7--7--7--------7--7--7--7--7--7--|--7--7--7-----7--7-----7--7-----7-----|
-----------------------------------|--------------------------------------|
 
 
  |--3--|        |--3--|  |--3--|     |--3--|  |--3--|  |--3--|  |--3--|   
  E  E  E  Q     E  E  E  E  E  E     E  E  E  E  E  E  E  E  E  E  E  E   
-----------------------------------|--------------------------------------|
-----------------------------------|--------------------------------------|
-----------6b----------------------|-----------6--------------------------|
-----------------------------------|--------------------7--------9-----9--|
--9--9--9--------9--9--9--9--9--9--|--9--9--9-----9--9-----9--9-----9-----|
-----------------------------------|--------------------------------------|
 
 
  |--3--|        |--3--|  |--3--|     |--3--|  |--3--|  |--3--|  |--3--|   
  E  E  E  Q     E  E  E  E  E  E     E  E  E  E  E  E  E  E  E  E  E  E   
-----------------------------------|--------------------------------------|
-----------------------------------|--------------------------------------|
-----------------------------------|--------------------------------------|
-----------9b----------------------|-----------9--------7--------9-----7--|
--7--7--7--------7--7--7--7--7--7--|--7--7--7-----7--7-----7--7-----7-----|
-----------------------------------|--------------------------------------|
 
 
  |--3--|        |--3--|  |--3--|     |--3--|  |--3--|  |--3--|  |--3--|   
  E  E  E  Q     E  E  E  E  E  E     E  E  E  E  E  E  E  E  E  E  E  E   
-----------------------------------|--------------------------------------|
-----------------------------------|--------------------------------------|
-----------6b----------------------|-----------6--------------------------|
-----------------------------------|--------------------7--------9-----9--|
--9--9--9--------9--9--9--9--9--9--|--9--9--9-----9--9-----9--9-----9-----|
-----------------------------------|--------------------------------------|
 
 
  |--3--|        |--3--|  |--3--|     |--3--|  |--3--|  |--3--|  |--3--|   
  E  E  E  Q     E  E  E  E  E  E     E  E  E  E  E  E  E  E  E  E  E  E   
-----------------------------------|--------------------------------------|
-----------------------------------|--------------------------------------|
-----------------------------------|--------------------------------------|
-----------9b----------------------|-----------9--------7--------9-----7--|
--7--7--7--------7--7--7--7--7--7--|--7--7--7-----7--7-----7--7-----7-----|
-----------------------------------|--------------------------------------|
 
 
            PM PM PM                                   
            |--3--|                                    
  Q    Q    E  E  E  E  E     E  E  E  E  E  E  E  E   
---------------------------|--------------------------|
---------------------------|--------------------------|
--2----2-------------------|--------------------------|
--2----2----2--2--2--2--2--|--2--2--2--2--2--2--2--2--|
--0----0----0--0--0--0--0--|--0--0--0--0--------------|
---------------------------|--------------3--3--3--3--|
 
 
        PM PM PM       PM PM PM          PM PM PM       PM PM PM  
        |--3--|        |--3--|           |--3--|        |--3--|   
  E  E  E  E  E  E  E  E  E  E     E  E  E  E  E  E  E  E  E  E   
--------------------------------|--------------------------------|
--------------------------------|--------------------------------|
--------------------------------|--------------------------------|
--4--4--4--4--4--4--4--4--4--4--|--4--4--4--4--4--4--4--4--4--4--|
--4--4--4--4--4--4--4--4--4--4--|--4--4--4--4--4--4--4--4--4--4--|
--2--2--2--2--2--2--2--2--2--2--|--2--2--2--2--2--2--2--2--2--2--|
 
 
            PM PM PM                                   
            |--3--|                                    
  Q    Q    E  E  E  E  E     E  E  E  E  E  E  E  E   
---------------------------|--------------------------|
---------------------------|--------------------------|
--2----2-------------------|--------------------------|
--2----2----2--2--2--2--2--|--2--2--2--2--2--2--2--2--|
--0----0----0--0--0--0--0--|--0--0--0--0--------------|
---------------------------|--------------3--3--3--3--|
 
 
        PM PM PM       PM PM PM          PM PM PM       PM PM PM  
        |--3--|        |--3--|           |--3--|        |--3--|   
  E  E  E  E  E  E  E  E  E  E     E  E  E  E  E  E  E  E  E  E   
--------------------------------|--------------------------------|
--------------------------------|--------------------------------|
--------------------------------|--------------------------------|
--4--4--4--4--4--4--4--4--4--4--|--4--4--4--4--4--4--4--4--4--4--|
--4--4--4--4--4--4--4--4--4--4--|--4--4--4--4--4--4--4--4--4--4--|
--2--2--2--2--2--2--2--2--2--2--|--2--2--2--2--2--2--2--2--2--2--|
 
 
    E  E  E  E  H           W                 7x   E  E  E  E  H         
|------------0--L--------|--L------------------||-----------0--L--------|
|------------0--L--------|--L------------------||-----------0--L--------|
|*-----6-----------------|-------------------*-||-----6-----------------|
|*--------7--------------|-------------------*-||--------7--------------|
|---9--------------------|---------------------||--9--------------------|
|------------------------|---------------------||-----------------------|
 
 
  W                     E  E  E  E  E  E  E  E     E  E  E  E  E  E  E  E   4x 
--L----------------||---------------------------|----------------------------||
--L----------------||---------------------------|----------------------------||
-------------------||*-----6-----6--L--------6--|--L--------6--L-----------*-||
-------------------||*--------7--------7--------|-----7-----------7-----7--*-||
-------------------||---9-----------------9-----|--------9-----------9-------||
-------------------||---------------------------|----------------------------||
 
 
  |--3--|        |--3--|  |--3--|     |--3--|  |--3--|  |--3--|  |--3--|   
  E  E  E  Q     E  E  E  E  E  E     E  E  E  E  E  E  E  E  E  E  E  E   
-----------------------------------|--------------------------------------|
-----------------------------------|--------------------------------------|
-----------6b----------------------|-----------6--------------------------|
-----------------------------------|--------------------7--------9-----9--|
--9--9--9--------9--9--9--9--9--9--|--9--9--9-----9--9-----9--9-----9-----|
-----------------------------------|--------------------------------------|
 
 
  |--3--|        |--3--|  |--3--|     |--3--|  |--3--|  |--3--|  |--3--|   
  E  E  E  Q     E  E  E  E  E  E     E  E  E  E  E  E  E  E  E  E  E  E   
-----------------------------------|--------------------------------------|
-----------------------------------|--------------------------------------|
-----------------------------------|--------------------------------------|
-----------9b----------------------|-----------9--------7--------9-----7--|
--7--7--7--------7--7--7--7--7--7--|--7--7--7-----7--7-----7--7-----7-----|
-----------------------------------|--------------------------------------|
 
 
  |--3--|        |--3--|  |--3--|     |--3--|  |--3--|  |--3--|  |--3--|   
  E  E  E  Q     E  E  E  E  E  E     E  E  E  E  E  E  E  E  E  E  E  E   
-----------------------------------|--------------------------------------|
-----------------------------------|--------------------------------------|
-----------6b----------------------|-----------6--------------------------|
-----------------------------------|--------------------7--------9-----9--|
--9--9--9--------9--9--9--9--9--9--|--9--9--9-----9--9-----9--9-----9-----|
-----------------------------------|--------------------------------------|
 
 
  |--3--|        |--3--|  |--3--|     |--3--|  |--3--|  |--3--|  |--3--|   
  E  E  E  Q     E  E  E  E  E  E     E  E  E  E  E  E  E  E  E  E  E  E   
-----------------------------------|--------------------------------------|
-----------------------------------|--------------------------------------|
-----------------------------------|--------------------------------------|
-----------9b----------------------|-----------9--------7--------9-----7--|
--7--7--7--------7--7--7--7--7--7--|--7--7--7-----7--7-----7--7-----7-----|
-----------------------------------|--------------------------------------|
 
 
            PM PM PM                                   
            |--3--|                                    
  Q    Q    E  E  E  E  E     E  E  E  E  E  E  E  E   
---------------------------|--------------------------|
---------------------------|--------------------------|
--2----2-------------------|--------------------------|
--2----2----2--2--2--2--2--|--2--2--2--2--2--2--2--2--|
--0----0----0--0--0--0--0--|--0--0--0--0--------------|
---------------------------|--------------3--3--3--3--|
 
 
        PM PM PM       PM PM PM          PM PM PM       PM PM PM  
        |--3--|        |--3--|           |--3--|        |--3--|   
  E  E  E  E  E  E  E  E  E  E     E  E  E  E  E  E  E  E  E  E   
--------------------------------|--------------------------------|
--------------------------------|--------------------------------|
--------------------------------|--------------------------------|
--4--4--4--4--4--4--4--4--4--4--|--4--4--4--4--4--4--4--4--4--4--|
--4--4--4--4--4--4--4--4--4--4--|--4--4--4--4--4--4--4--4--4--4--|
--2--2--2--2--2--2--2--2--2--2--|--2--2--2--2--2--2--2--2--2--2--|
 
 
            PM PM PM                                   
            |--3--|                                    
  Q    Q    E  E  E  E  E     E  E  E  E  E  E  E  E   
---------------------------|--------------------------|
---------------------------|--------------------------|
--2----2-------------------|--------------------------|
--2----2----2--2--2--2--2--|--2--2--2--2--2--2--2--2--|
--0----0----0--0--0--0--0--|--0--0--0--0--------------|
---------------------------|--------------3--3--3--3--|
 
 
        PM PM PM       PM PM PM          PM PM PM       PM PM PM  
        |--3--|        |--3--|           |--3--|        |--3--|   
  E  E  E  E  E  E  E  E  E  E     E  E  E  E  E  E  E  E  E  E   
--------------------------------|--------------------------------|
--------------------------------|--------------------------------|
--------------------------------|--------------------------------|
--4--4--4--4--4--4--4--4--4--4--|--4--4--4--4--4--4--4--4--4--4--|
--4--4--4--4--4--4--4--4--4--4--|--4--4--4--4--4--4--4--4--4--4--|
--2--2--2--2--2--2--2--2--2--2--|--2--2--2--2--2--2--2--2--2--2--|
 
 
        |--3--|        |--3--|              |---3---|           |---3---|   
  E  E  E  E  E  E  E  E  E  E      E   E   E   E   E   E   E   E   E   E   
--------------------------------|------------------------------------------|
--------------------------------|------------------------------------------|
--------------------------------|------------------------------------------|
--------------------------------|------------------------------------------|
--9--9--9--9--9--8--8--8--8--8--|--12--12--12--12--12--12--12--12--12--12--|
--7--7--7--7--7--7--7--7--7--7--|--10--10--10--10--10---9---9---9---9---9--|
 
 
   E  E   E  E  Q     E  E      E  E  Q     E  E   E  E   
----------------------------|----------------------------|
----------------------------|----------------------------|
----------------------------|----------------------------|
----------------------------|----------------------------|
--10--9--10--9-------10--9--|--10--9-------10--9--10--9--|
---9--9---9--9--------9--9--|---9--9--------9--9---9--9--|
 
 
        |--3--|        |--3--|              |---3---|           |---3---|   
  E  E  E  E  E  E  E  E  E  E      E   E   E   E   E   E   E   E   E   E   
--------------------------------|------------------------------------------|
--------------------------------|------------------------------------------|
--------------------------------|------------------------------------------|
--------------------------------|------------------------------------------|
--9--9--9--9--9--8--8--8--8--8--|--12--12--12--12--12--12--12--12--12--12--|
--7--7--7--7--7--7--7--7--7--7--|--10--10--10--10--10---9---9---9---9---9--|
 
 
   E  E   E  E  Q     E  E      E  E  Q     E  E   E  E   
----------------------------|----------------------------|
----------------------------|----------------------------|
----------------------------|----------------------------|
----------------------------|----------------------------|
--10--9--10--9-------10--9--|--10--9-------10--9--10--9--|
---9--9---9--9--------9--9--|---9--9--------9--9---9--9--|
 
 
        |--3--|        |--3--|              |---3---|           |---3---|   
  E  E  E  E  E  E  E  E  E  E      E   E   E   E   E   E   E   E   E   E   
--------------------------------|------------------------------------------|
--------------------------------|------------------------------------------|
--------------------------------|------------------------------------------|
--------------------------------|------------------------------------------|
--9--9--9--9--9--8--8--8--8--8--|--12--12--12--12--12--12--12--12--12--12--|
--7--7--7--7--7--7--7--7--7--7--|--10--10--10--10--10---9---9---9---9---9--|
 
 
   E  E   E  E  Q     E  E      E  E  Q     E  E   E  E   
----------------------------|----------------------------|
----------------------------|----------------------------|
----------------------------|----------------------------|
----------------------------|----------------------------|
--10--9--10--9-------10--9--|--10--9-------10--9--10--9--|
---9--9---9--9--------9--9--|---9--9--------9--9---9--9--|
 
 
        |--3--|        |--3--|              |---3---|           |---3---|   
  E  E  E  E  E  E  E  E  E  E      E   E   E   E   E   E   E   E   E   E   
--------------------------------|------------------------------------------|
--------------------------------|------------------------------------------|
--------------------------------|------------------------------------------|
--------------------------------|------------------------------------------|
--9--9--9--9--9--8--8--8--8--8--|--12--12--12--12--12--12--12--12--12--12--|
--7--7--7--7--7--7--7--7--7--7--|--10--10--10--10--10---9---9---9---9---9--|
 
 
   E  E   E  E  Q     E  E      E  E  Q     E  E   E  E   
----------------------------|----------------------------|
----------------------------|----------------------------|
----------------------------|----------------------------|
----------------------------|----------------------------|
--10--9--10--9-------10--9--|--10--9-------10--9--10--9--|
---9--9---9--9--------9--9--|---9--9--------9--9---9--9--|
 
 
                                            |---3---|   |---3---|   
   E  E   E  E  Q     E  E      E  E  Q     E   E   E   E   E   E   
----------------------------|--------------------------------------|
----------------------------|--------------------------------------|
----------------------------|--------------14--14--14--14--14--14--|
----------------------------|--------------------------------------|
--10--9--10--9-------10--9--|--10--9-------12--12--12--12--12--12--|
---9--9---9--9--------9--9--|---9--9-------------------------------|
 
 
  E  E  E  E  E  E  E  E     E  E  E  E  E  E  E  E   
--------------------------|--------------------------|
--------------------------|--------------------------|
--6--------6--L--------6--|--L--------6--L--------6--|
-----7-----------7--------|-----7-----------7--------|
--------9-----------9-----|--------9-----------9-----|
--------------------------|--------------------------|
 
 
  E  E  E  E  E  E  E  E     E  E  E  E  E  E  E  E   
--------------------------|--------------------------|
--------------------------|--------------------------|
--L--------6--L--------8--|--L--------8--L--------6--|
-----7-----------7--------|-----7-----------7--------|
--------9-----------9-----|--------9-----------9-----|
--------------------------|--------------------------|
 
 
  E  E  E  E  E  E  E  E     E  E  E  E  E  E  E  E   
--------------------------|--------------------------|
--------------------------|--------------------------|
--6--------6--L--------6--|--L--------6--L--------6--|
-----7-----------7--------|-----7-----------7--------|
--------9-----------9-----|--------9-----------9-----|
--------------------------|--------------------------|
 
 
  E  E  E  E  E  E  E  E     E  E  E  E  E  E  E  E   
--------------------------|--------------------------|
--------------------------|--------------------------|
--L--------6--L--------8--|--L--------8--L--------6--|
-----7-----------7--------|-----7-----------7--------|
--------9-----------9-----|--------9-----------9-----|
--------------------------|--------------------------|
 
 
  |--3--|        |--3--|  |--3--|     |--3--|  |--3--|  |--3--|  |--3--|   
  E  E  E  Q     E  E  E  E  E  E     E  E  E  E  E  E  E  E  E  E  E  E   
-----------------------------------|--------------------------------------|
-----------------------------------|--------------------------------------|
-----------6b----------------------|-----------6--------------------------|
-----------------------------------|--------------------7--------9-----9--|
--9--9--9--------9--9--9--9--9--9--|--9--9--9-----9--9-----9--9-----9-----|
-----------------------------------|--------------------------------------|
 
 
  |--3--|        |--3--|  |--3--|     |--3--|  |--3--|  |--3--|  |--3--|   
  E  E  E  Q     E  E  E  E  E  E     E  E  E  E  E  E  E  E  E  E  E  E   
-----------------------------------|--------------------------------------|
-----------------------------------|--------------------------------------|
-----------------------------------|--------------------------------------|
-----------9b----------------------|-----------9--------7--------9-----7--|
--7--7--7--------7--7--7--7--7--7--|--7--7--7-----7--7-----7--7-----7-----|
-----------------------------------|--------------------------------------|
 
 
  |--3--|        |--3--|  |--3--|     |--3--|  |--3--|  |--3--|  |--3--|   
  E  E  E  Q     E  E  E  E  E  E     E  E  E  E  E  E  E  E  E  E  E  E   
-----------------------------------|--------------------------------------|
-----------------------------------|--------------------------------------|
-----------6b----------------------|-----------6--------------------------|
-----------------------------------|--------------------7--------9-----9--|
--9--9--9--------9--9--9--9--9--9--|--9--9--9-----9--9-----9--9-----9-----|
-----------------------------------|--------------------------------------|
 
 
  |--3--|        |--3--|  |--3--|     |--3--|  |--3--|  |--3--|  |--3--|   
  E  E  E  Q     E  E  E  E  E  E     E  E  E  E  E  E  E  E  E  E  E  E   
-----------------------------------|--------------------------------------|
-----------------------------------|--------------------------------------|
-----------------------------------|--------------------------------------|
-----------9b----------------------|-----------9--------7--------9-----7--|
--7--7--7--------7--7--7--7--7--7--|--7--7--7-----7--7-----7--7-----7-----|
-----------------------------------|--------------------------------------|
 
 
            PM PM PM                                   
            |--3--|                                    
  Q    Q    E  E  E  E  E     E  E  E  E  E  E  E  E   
---------------------------|--------------------------|
---------------------------|--------------------------|
--2----2-------------------|--------------------------|
--2----2----2--2--2--2--2--|--2--2--2--2--2--2--2--2--|
--0----0----0--0--0--0--0--|--0--0--0--0--------------|
---------------------------|--------------3--3--3--3--|
 
 
        PM PM PM       PM PM PM          PM PM PM       PM PM PM  
        |--3--|        |--3--|           |--3--|        |--3--|   
  E  E  E  E  E  E  E  E  E  E     E  E  E  E  E  E  E  E  E  E   
--------------------------------|--------------------------------|
--------------------------------|--------------------------------|
--------------------------------|--------------------------------|
--4--4--4--4--4--4--4--4--4--4--|--4--4--4--4--4--4--4--4--4--4--|
--4--4--4--4--4--4--4--4--4--4--|--4--4--4--4--4--4--4--4--4--4--|
--2--2--2--2--2--2--2--2--2--2--|--2--2--2--2--2--2--2--2--2--2--|
 
 
            PM PM PM                                   
            |--3--|                                    
  Q    Q    E  E  E  E  E     E  E  E  E  E  E  E  E   
---------------------------|--------------------------|
---------------------------|--------------------------|
--2----2-------------------|--------------------------|
--2----2----2--2--2--2--2--|--2--2--2--2--2--2--2--2--|
--0----0----0--0--0--0--0--|--0--0--0--0--------------|
---------------------------|--------------3--3--3--3--|
 
 
        PM PM PM       PM PM PM          PM PM PM       PM PM PM  
        |--3--|        |--3--|           |--3--|        |--3--|   
  E  E  E  E  E  E  E  E  E  E     E  E  E  E  E  E  E  E  E  E   
--------------------------------|--------------------------------|
--------------------------------|--------------------------------|
--------------------------------|--------------------------------|
--4--4--4--4--4--4--4--4--4--4--|--4--4--4--4--4--4--4--4--4--4--|
--4--4--4--4--4--4--4--4--4--4--|--4--4--4--4--4--4--4--4--4--4--|
--2--2--2--2--2--2--2--2--2--2--|--2--2--2--2--2--2--2--2--2--2--|
 
 
        |--3--|        |--3--|              |---3---|           |---3---|   
  E  E  E  E  E  E  E  E  E  E      E   E   E   E   E   E   E   E   E   E   
--------------------------------|------------------------------------------|
--------------------------------|------------------------------------------|
--------------------------------|------------------------------------------|
--------------------------------|------------------------------------------|
--9--9--9--9--9--8--8--8--8--8--|--12--12--12--12--12--12--12--12--12--12--|
--7--7--7--7--7--7--7--7--7--7--|--10--10--10--10--10---9---9---9---9---9--|
 
 
   E  E   E  E  Q     E  E      E  E  Q     E  E   E  E   
----------------------------|----------------------------|
----------------------------|----------------------------|
----------------------------|----------------------------|
----------------------------|----------------------------|
--10--9--10--9-------10--9--|--10--9-------10--9--10--9--|
---9--9---9--9--------9--9--|---9--9--------9--9---9--9--|
 
 
        |--3--|        |--3--|              |---3---|           |---3---|   
  E  E  E  E  E  E  E  E  E  E      E   E   E   E   E   E   E   E   E   E   
--------------------------------|------------------------------------------|
--------------------------------|------------------------------------------|
--------------------------------|------------------------------------------|
--------------------------------|------------------------------------------|
--9--9--9--9--9--8--8--8--8--8--|--12--12--12--12--12--12--12--12--12--12--|
--7--7--7--7--7--7--7--7--7--7--|--10--10--10--10--10---9---9---9---9---9--|
 
 
   E  E   E  E  Q     E  E      E  E  Q     E  E   E  E   
----------------------------|----------------------------|
----------------------------|----------------------------|
----------------------------|----------------------------|
----------------------------|----------------------------|
--10--9--10--9-------10--9--|--10--9-------10--9--10--9--|
---9--9---9--9--------9--9--|---9--9--------9--9---9--9--|
 
 
        |--3--|        |--3--|              |---3---|           |---3---|   
  E  E  E  E  E  E  E  E  E  E      E   E   E   E   E   E   E   E   E   E   
--------------------------------|------------------------------------------|
--------------------------------|------------------------------------------|
--------------------------------|------------------------------------------|
--------------------------------|------------------------------------------|
--9--9--9--9--9--8--8--8--8--8--|--12--12--12--12--12--12--12--12--12--12--|
--7--7--7--7--7--7--7--7--7--7--|--10--10--10--10--10---9---9---9---9---9--|
 
 
   E  E   E  E  Q     E  E      E  E  Q     E  E   E  E   
----------------------------|----------------------------|
----------------------------|----------------------------|
----------------------------|----------------------------|
----------------------------|----------------------------|
--10--9--10--9-------10--9--|--10--9-------10--9--10--9--|
---9--9---9--9--------9--9--|---9--9--------9--9---9--9--|
 
 
        |--3--|        |--3--|              |---3---|           |---3---|   
  E  E  E  E  E  E  E  E  E  E      E   E   E   E   E   E   E   E   E   E   
--------------------------------|------------------------------------------|
--------------------------------|------------------------------------------|
--------------------------------|------------------------------------------|
--------------------------------|------------------------------------------|
--9--9--9--9--9--8--8--8--8--8--|--12--12--12--12--12--12--12--12--12--12--|
--7--7--7--7--7--7--7--7--7--7--|--10--10--10--10--10---9---9---9---9---9--|
 
 
   E    E   E    E    E  E   E    E      E    E    E  E   E    E   E    E   
--14---17--14---14----------14---17--|--14---14----------14---17--14---17--|
--17b------17b--17b---L-----17b------|--17b--17b---L-----17b------17b------|
-------------------------------------|-------------------------------------|
-------------------------------------|-------------------------------------|
-------------------------------------|-------------------------------------|
-------------------------------------|-------------------------------------|
 
 
   E    E   E    E    E  E   E    E   
--14---17--14---14----------14---17--|
--17b------17b--17b---L-----17b------|
-------------------------------------|
-------------------------------------|
-------------------------------------|
-------------------------------------|
 
 
                    |----3----|    |----3----|      ---  
   E    E    E  E   E    E    E    E    E    E           
--14---14----------14---14---14---14---14---14---|-----||
--17b--17b---L-----17b--17b--17b--17b--17b--17b--|-----||
-------------------------------------------------|-----||
-------------------------------------------------|-----||
-------------------------------------------------|-----||
-------------------------------------------------|-----||
 
 
 
 
Duration Legend
---------------
W - whole
H - half
Q - quarter
E - 8th
S - 16th
T - 32nd
X - 64th
. - note dotted
|-n-|  - n-tuplets
 
 
Tablature Legend
----------------
L - tied note
x - dead note
g - grace note
(n) - ghost note
> - accentuded note
NH - natural harmonic
AH - artificial harmonic
TH - tapped harmonic
SH - semi harmonic
PH - pitch harmonic
h - hammer on
p - pull off
b - bend
br - bendRelease
pb - preBend
pbr - preBendRelease
brb - bendReleaseBend
\n/ - tremolo bar dip
\n - tremolo bar dive
-/n - tremolo bar Release up
/n\ - tremolo bar inverted dip
/n - tremolo bar return
-\n - tremolo bar Release down
S - shift slide
s - legato slide
/ -  slide into from below or out of upwards
\ -  slide into from above or out of downwards
~ - vibrato
W - wide vibrato
tr - tril'
TP - tremolo picking
T - tapping
S - slap
P - pop
< - fade in
^ - brush up
v - brush down

comments
We did not receive enough feedback on this tab! Please rate:
print report bad tab
1 2 3 4 5
I want to post or [tab]
guest
You may want to rate the tab now too:
select rating
Please do not post tabs as comments. Select "correction" instead!