Oops, an error
Loading. Please wait.

Into The New Bass Tab

ver1
ver1

Whole song

Interactive

More versions @911Tabs.com
20 views 1 this week
no commentswrite comment
1 2 3 4 5
please rate
add to favorites launch autoscroll
font size
0
reset
Autoscroll
+/-
esc
set tempo
stop
Contributor
Difficulty
intermediate
WARNING: You are trying to view
                                    content from Ultimate-Guitar.com
                                    in an unauthorized application,
                                    which is prohibited.

                                    Please use an official Ultimate
                                    Guitar Tabs application for iPhone,
                                    iPad or Android to access legitimate
                                    chords, guitar, bass, and drum tabs
                                    from Ultimate-Guitar.com database.

                                    Type "ultimate guitar tabs" in Apple
                                    App Store's or Android Market's
                                    search to find the application.
-------------------------------------------------------------------------------
			     INTO THE NEW - Vallejo
-------------------------------------------------------------------------------

Tabbed By : Isaias Garcia (TexasFury)

Tuning: Standard



     Intro - m.8                                                  
     H        Q     Q        E  E  E  S S E  E  E  S S  
G||-----------------------|----------------------------|
D||-----------------------|----------------------------|
A||-----------------------|----------------------------|
E||----------------14\----|--2--2-----2-2-2--2-----2-2-|


  E  E  E  S S E  E  Q       E  E  E  S S E  E  E  S S  
--------------------------|----------------------------|
--------------------------|----------------------------|
--------------------------|----------------------------|
--2--2-----2-2-5--5--7----|--2--2-----2-2-2--2-----2-2-|


  E  E  E  S S E  E  E  E     E  E  E  S S E  E  E  S S  
---------------------------|----------------------------|
---------------------------|----------------------------|
---------------------------|----------------------------|
--2--2-----2-2-0--0--1--1--|--2--2-----2-2-2--2-----2-2-|


  E  E  E  S S E  E  Q       E  E  E  S S E  E  E  S S  
--------------------------|----------------------------|
--------------------------|----------------------------|
--------------------------|----------------------------|
--2--2-----2-2-5--5--7----|--2--2-----2-2-2--2-----2-2-|


                               Verse 1                       
  E  E  E  S S E  E  E  E      E  E  E  E  E  E  E  E   
---------------------------||--------------------------|
---------------------------||--------------------------|
---------------------------||--------------------------|
--2--2-----2-2-0--0--1--1--||--2--2--0--2--2--2--0--2--|


  E  E  E  E  E  E  E  E     E  E  E  E  E  E  E  E     E  E  E  E  E  E  Q     
--------------------------|--------------------------|-------------------------|
--------------------------|--------------------------|-------------------------|
--------------------------|--------------------------|-------------------------|
--2--2--0--2--2--2--0--2--|--2--2--0--2--2--2--0--2--|--2--2--0--2--5--5--7----|


  E  E  E  E  E  E  E  E     E  E  E  E  E  E  E  E   
--------------------------|--------------------------|
--------------------------|--------------------------|
--------------------------|--------------------------|
--2--2--0--2--2--2--0--2--|--2--2--0--2--2--2--0--2--|


  E  E  E  E  E  E  E  E     E  E  E  E  S S S S S S S S  
--------------------------|------------------------------|
--------------------------|------------------------------|
--------------------------|--------------9-9-9-9-9-9-9-9-|
--2--2--0--2--2--2--0--2--|--2--2--0--2------------------|


  E  E  E  S S E  E  E  S S    E  E  E  S S E  E  Q     
----------------------------|--------------------------|
----------------------------|--------------------------|
----------------------------|--------------------------|
--2--2-----2-2-2--2-----2-2-|--2--2-----2-2-5--5--7----|


  E  E  E  S S E  E  E  S S    E  E  E  S S E  E  Q     
----------------------------|--------------------------|
----------------------------|--------------------------|
----------------------------|--------------------------|
--2--2-----2-2-2--2-----2-2-|--2--2-----2-2-7--7--5----|


  E  E  E  S S E  E  E  S S    E  E  E  S S E  E  Q     
----------------------------|--------------------------|
----------------------------|--------------------------|
----------------------------|--------------------------|
--2--2-----2-2-2--2-----2-2-|--2--2-----2-2-5--5--7----|


  E  E  E  S S E  E  E  S S    E  E  E  S S E  E  Q     
----------------------------|--------------------------|
----------------------------|--------------------------|
----------------------------|--------------------------|
--2--2-----2-2-2--2-----2-2-|--2--2-----2-2-7--7--5----|


  E  E  E  E  E  E  E  E     E  E  E  E  E  E  E  E   
--------------------------|--------------------------|
--------------------------|--------------------------|
--------------------------|--------------------------|
--5--5--5--5--5--5--5--5--|--4--4--4--4--3--3--3--3--|


  E  E  E  S S E  E  E  S S    E  E  E  S S E  E  E  S S  
----------------------------|----------------------------|
----------------------------|----------------------------|
----------------------------|----------------------------|
--2--2-----2-2-2--2-----2-2-|--2--2-----2-2-2--2-----2-2-|


  E  E  E  E  E  E  E  E     E  E  E  E  E  E  E  E   
--------------------------|--------------------------||
--------------------------|--------------------------||
--------------------------|--------------------------||
--5--5--5--5--5--5--5--5--|--7--7--7--7--3--3--3--3--||


  Chorus 1                                                                            
  Q    E  E  E  E  E  S S    Q    E  S S E  E  Q       Q    E  S S E  E  E  E   
--------------------------|-------------------------|--------------------------|
--------------------------|-------------------------|--------------------------|
--------------------------|-------------------------|--------------------------|
--2-------2--2--2-----2-2-|--2-------2-2-5--5--7----|--2-------2-2-2--2-----2--|


                         Guitar Break                                                    
  Q    Q    H            E  E  E  S S E  E  E  S S    E  E  E  S S E  E  Q     
---------------------||----------------------------|--------------------------|
---------------------||----------------------------|--------------------------|
---------------------||----------------------------|--------------------------|
--2------------------||--2--2-----2-2-2--2-----2-2-|--2--2-----2-2-5--5--7----|


  E  E  E  S S E  E  E  S S    E  E  E  S S E  E  Q     
----------------------------|--------------------------|
----------------------------|--------------------------|
----------------------------|--------------------------|
--2--2-----2-2-2--2-----2-2-|--2--2-----2-2-7--7--5----|


  E  E  E  S S E  E  E  S S    E  E  E  S S E  E  Q     
----------------------------|--------------------------|
----------------------------|--------------------------|
----------------------------|--------------------------|
--2--2-----2-2-2--2-----2-2-|--2--2-----2-2-5--5--7----|


  E  E  E  S S E  E  E  S S    E  E  E  S S E  E  E  E   
----------------------------|---------------------------||
----------------------------|---------------------------||
----------------------------|---------------------------||
--2--2-----2-2-2--2-----2-2-|--2--2-----2-2-0--0--1--1--||


  Verse 2                                                  
  E  E  E  E  E  E  E  E     E  E  E  E  E  E  E  E   
--------------------------|--------------------------|
--------------------------|--------------------------|
--------------------------|--------------------------|
--2--2--0--2--2--2--0--2--|--2--2--0--2--2--2--0--2--|


  E  E  E  E  E  E  E  E     E  E  E  E  E  E  Q       E  E  E  E  E  E  E  E   
--------------------------|-------------------------|--------------------------|
--------------------------|-------------------------|--------------------------|
--------------------------|-------------------------|--------------------------|
--2--2--0--2--2--2--0--2--|--2--2--0--2--5--5--7----|--2--2--0--2--2--2--0--2--|


  E  E  E  E  E  E  E  E     E  E  E  E  E  E  E  E   
--------------------------|--------------------------|
--------------------------|--------------------------|
--------------------------|--------------------------|
--2--2--0--2--2--2--0--2--|--2--2--0--2--2--2--0--2--|


   S S S S S  S S S S S S S S S S S    E  E  E  S S E  E  E  S S  
------------------------------------|----------------------------|
------------------------------------|----------------------------|
--/9-9-9-9-7h-9-9-9-9-9-9-9-9-9-9-9-|----------------------------|
------------------------------------|--2--2-----2-2-2--2-----2-2-|


  E  E  E  S S E  E  E  E     E  E  E  S S E  E  E  S S  
---------------------------|----------------------------|
---------------------------|----------------------------|
---------------------------|----------------------------|
--2--2-----2-2-5--5--7--7--|--2--2-----2-2-2--2-----2-2-|


  E  E  E  S S E  E  Q       E  E  E  S S E  E  E  S S  
--------------------------|----------------------------|
--------------------------|----------------------------|
--------------------------|----------------------------|
--2--2-----2-2-7--7--5----|--2--2-----2-2-2--2-----2-2-|


  E  E  E  S S E  E  Q       E  E  E  S S E  E  E  S S  
--------------------------|----------------------------|
--------------------------|----------------------------|
--------------------------|----------------------------|
--2--2-----2-2-5--5--7----|--2--2-----2-2-2--2-----2-2-|


  E  E  E  S S E  E  Q       E  E  E  E  E  E  E  E   
--------------------------|--------------------------|
--------------------------|--------------------------|
--------------------------|--------------------------|
--2--2-----2-2-7--7--5----|--5--5--5--5--5--5--5--5--|


  E  E  E  E  E  E  E  E     E  E  E  S S E  E  E  S S  
--------------------------|----------------------------|
--------------------------|----------------------------|
--------------------------|----------------------------|
--4--4--4--4--3--3--3--3--|--2--2-----2-2-2--2-----2-2-|


  E  E  E  S S E  E  S S E     E  E  E  E  E  E  E  E   
----------------------------|--------------------------|
----------------------------|--------------------------|
----------------------------|--------------------------|
--2--2-----2-2-2--2----2-2--|--5--5--5--5--5--5--5--5--|


                             Chorus 2                         
  E  E  Q     E  E  Q        E  E  E  S S E  E  E  S S  
-------------------------||----------------------------|
-------------------------||----------------------------|
-------------------------||----------------------------|
--7--7--7S----3--3--3----||--2--2-----2-2-2--2-----2-2-|


  E  E  E  S S E  E  Q       E  E  E  S S E  E  E  S S  
--------------------------|----------------------------|
--------------------------|----------------------------|
--------------------------|----------------------------|
--2--2-----2-2-5--5--7----|--2--2-----2-2-2--2-----2-2-|


  E  E  E  S S E  E  E  E     E  E  E  S S E  E  E  S S  
---------------------------|----------------------------|
---------------------------|----------------------------|
---------------------------|----------------------------|
--2--2-----2-2-0--0--1--1--|--2--2-----2-2-2--2-----2-2-|


  E  E  E  S S E  E  Q       E  E  E  S S E  E  E  S S    Q    Q    H         
--------------------------|----------------------------|---------------------||
--------------------------|----------------------------|---------------------||
--------------------------|----------------------------|---------------------||
--2--2-----2-2-5--5--7----|--2--2-----2-2-2--2-----2-2-|--2------------------||


  Breakdown                                                  
  E  E  E  E  E  E  E  E     E  E  E  E  E  E  E  E   
--------------------------|--------------------------|
--------------------------|--------------------------|
--------------------------|--------------------------|
--2--2--0--2--L--2--0--2--|--2--2--0--2--L--2--0--2--|


  E  E  E  E  E  E  E  E     E  E  E  E  E  E  E  E   
--------------------------|--------------------------|
--------------------------|--------------------------|
--------------------------|--------------------------|
--2--2--0--2--L--2--0--2--|--2--2--0--2--L--2--0--2--|


  E  E  E  E  E  E  E  E     E  E  E  E  E  E  E  E   
--------------------------|--------------------------|
--------------------------|--------------------------|
--------------------------|--------------------------|
--2--2--0--2--L--2--0--2--|--2--2--0--2--L--2--0--2--|


  E  E  E  E  E  E  E  E     E  E  E  E  E  E  E  E   
--------------------------|--------------------------|
--------------------------|--------------------------|
--------------------------|--------------------------|
--2--2--0--2--L--2--0--2--|--2--2--0--2--L--2--0--2--|


  E  E  E  E  E  E  E  E     E  E  E  E  E  E  E  E   
--------------------------|--------------------------|
--------------------------|--------------------------|
--------------------------|--------------------------|
--2--2--0--2--2--2--0--2--|--2--2--0--2--2--2--0--2--|


  E  E  E  E  E  E  E  E     E  E  E  E  E  E  Q       E  E  E  E  E  E  E  E   
--------------------------|-------------------------|--------------------------|
--------------------------|-------------------------|--------------------------|
--------------------------|-------------------------|--------------------------|
--2--2--0--2--2--2--0--2--|--2--2--0--2--5--5--7----|--2--2--0--2--2--2--0--2--|


  E  E  E  E  E  E  E  E     E  E  E  E  E  E  E  E   
--------------------------|--------------------------|
--------------------------|--------------------------|
--------------------------|--------------------------|
--2--2--0--2--2--2--0--2--|--2--2--0--2--2--2--0--2--|


                                        Verse 3                         
   S S S S S  S S S S S S S S S S S     E  E  E  S S E  E  E  S S  
------------------------------------||----------------------------|
------------------------------------||----------------------------|
--/9-9-9-9-7h-9-9-9-9-9-9-9-9-9-9-9-||----------------------------|
------------------------------------||--2--2-----2-2-2--2-----2-2-|


  E  E  E  S S E  E  Q       E  E  E  S S E  E  E  S S  
--------------------------|----------------------------|
--------------------------|----------------------------|
--------------------------|----------------------------|
--2--2-----2-2-5--5--7----|--2--2-----2-2-2--2-----2-2-|


  E  E  E  S S E  E  Q       E  E  E  S S E  E  E  S S  
--------------------------|----------------------------|
--------------------------|----------------------------|
--------------------------|----------------------------|
--2--2-----2-2-7--7--5----|--2--2-----2-2-2--2-----2-2-|


  E  E  E  S S E  E  Q       E  E  E  S S E  E  E  S S  
--------------------------|----------------------------|
--------------------------|----------------------------|
--------------------------|----------------------------|
--2--2-----2-2-5--5--7----|--2--2-----2-2-2--2-----2-2-|


  E  E  E  S S E  E  Q       E  E  E  E  E  E  E  E   
--------------------------|--------------------------|
--------------------------|--------------------------|
--------------------------|--------------------------|
--2--2-----2-2-7--7--5----|--5--5--5--5--5--5--5--5--|


  E  E  E  E  E  E  E  E     E  E  E  S S E  E  E  S S  
--------------------------|----------------------------|
--------------------------|----------------------------|
--------------------------|----------------------------|
--4--4--4--4--3--3--3--3--|--2--2-----2-2-2--2-----2-2-|


  E  E  E  S S E  E  E  S S    E  E  E  E  E  E  E  E   
----------------------------|--------------------------|
----------------------------|--------------------------|
----------------------------|--------------------------|
--2--2-----2-2-2--2-----2-2-|--5--5--5--5--5--5--5--5--|


                              Chorus 3                         
  E  E  E  E  E  E  E  E      E  E  E  S S E  E  E  S S  
--------------------------||----------------------------|
--------------------------||----------------------------|
--------------------------||----------------------------|
--4--4--4--4--3--3--3--3--||--2--2-----2-2-2--2-----2-2-|


  E  E  E  S S E  E  E  E     E  E  E  S S E  E  E  S S  
---------------------------|----------------------------|
---------------------------|----------------------------|
---------------------------|----------------------------|
--2--2-----2-2-5--5--7--7--|--2--2-----2-2-2--2-----2-2-|


  E  E  E  S S E  E  E  E     E  E  E  S S E  E  E  S S  
---------------------------|----------------------------|
---------------------------|----------------------------|
---------------------------|----------------------------|
--2--2-----2-2-0--0--1--1--|--2--2-----2-2-2--2-----2-2-|


  E  E  E  S S E  E  Q       E  E  E  S S E  E  E  S S  
--------------------------|----------------------------|
--------------------------|----------------------------|
--------------------------|----------------------------|
--2--2-----2-2-5--5--7----|--2--2-----2-2-2--2-----2-2-|


                            Outro                                                   
  Q    Q    Q     Q         E  E  E  E  E  E  E  E     E  E  E  E  E  E  E  E   
------------------------||--------------------------|--------------------------|
------------------------||--------------------------|--------------------------|
------------------------||--------------------------|--------------------------|
--2--------------14\----||--2--2--0--2--2--2--0--2--|--2--2--0--2--2--2--0--2--|


  E  E  E  E  E  E  E  E     E  E  E  E  E  E  E  E   
--------------------------|--------------------------|
--------------------------|--------------------------|
--------------------------|--------------------------|
--2--2--0--2--2--2--0--2--|--2--2--0--2--2--0--0--1--|


  E  E  E  E  E  E  E  E     E  E  E  E  E  E  E  E   
--------------------------|--------------------------|
--------------------------|--------------------------|
--------------------------|--------------------------|
--2--2--0--2--2--2--0--2--|--2--2--0--2--2--2--0--2--|


  E  E  E  E  E  E  E  E      S S S S S  S S S S S S S S S S S  
--------------------------|------------------------------------|
--------------------------|------------------------------------|
--------------------------|--/7-9-9-9-7h-9-9-9-9-9-9-9-9-9-9-9-|
--2--2--0--2--2--2--0--2--|------------------------------------|


  E  E  E  E  E  E  E  E     E  E  E  E  E  E  E  E   
--------------------------|--------------------------|
--------------------------|--------------------------|
--------------------------|--------------------------|
--2--2--0--2--2--2--0--2--|--2--2--0--2--2--2--0--2--|


  E  E  E  E  E  E  E  E    
--------------------------||
--------------------------||
--------------------------||
--2--2--0--2--2--2--0--2--||




Duration Legend
---------------
W - whole
H - half
Q - quarter
E - 8th
S - 16th

http://www.vallejomusic.com/

Get my other tabs for Guitar Pro, Powertab, guitar/bass text and chords at
http://profile.ultimate-guitar.com/TexasFury/contributions/
comments
We did not receive enough feedback on this tab! Please rate:
print report bad tab
1 2 3 4 5
I want to post or [tab]
guest
You may want to rate the tab now too:
select rating
Please do not post tabs as comments. Select "correction" instead!