Oops, an error
Loading. Please wait.

Into The New Tab

ver1
ver1

Whole song

Interactive

More versions @911Tabs.com
26 views 1 this week
no commentswrite comment
1 2 3 4 5
please rate
Autoscroll
+/-
esc
set tempo
stop
Contributor
Difficulty
Tabbers playing skills
intermediate
advanced ++
Hey! There's an official Ultimate Guitar app which is ideal
for learning songs when you're away from computer. Get the app
WARNING: You are trying to view
                                    content from Ultimate-Guitar.com
                                    in an unauthorized application,
                                    which is prohibited.

                                    Please use an official Ultimate
                                    Guitar Tabs application for iPhone,
                                    iPad or Android to access legitimate
                                    chords, guitar, bass, and drum tabs
                                    from Ultimate-Guitar.com database.

                                    Type "ultimate guitar tabs" in Apple
                                    App Store's or Android Market's
                                    search to find the application.
-------------------------------------------------------------------------------
                             INTO THE NEW - Vallejo
-------------------------------------------------------------------------------

Tabbed by: Isaias Garcia (TexasFury)

Tuning: Standard

www.vallejomusic.com



Guitar - left

     Intro - m.9                                                                          
     Q    Q    E  E  E  E     E  E  E  E  E  E  E  E     Q    Q    E  E  E  E   
E||---------------------0--|--L-----------------------|---------------------0--|
B||---------------0--L-----|-----0--L--------0--------|---------------0--L-----|
G||------------3-----------|-----------3--L-----3-----|------------3-----------|
D||-------4----------------|-----------------------4--|--L----4----------------|
A||------------------------|--------------------------|------------------------|
E||------------------------|--------------------------|------------------------|


  E  E  E  E  E  E  E  E     Q    Q    E  E  E  E     E  E  E  E  E  E  E  E   
--L-----------------------|---------------------0--|--L-----------------------|
-----0--L--------0--------|---------------0--L-----|-----0--L--------0--------|
-----------3--L-----3-----|------------3-----------|-----------3--L-----3-----|
-----------------------4--|--L----4----------------|-----------------------4--|
--------------------------|------------------------|--------------------------|
--------------------------|------------------------|--------------------------|


  E  E  E  E  E  E  E  E     W                  
--------------------------|-------------------|
--0--------0--L--------2--|--L----------------|
-----3-----------3--------|-------------------|
--------4-----------4-----|-------------------|
--------------------------|-------------------|
--------------------------|-------------------|


  Verse 1 - m.21                                                  
  PM PM PM PM PM PM PM PM    PM PM PM PM PM PM PM PM  
  E  E  E  E  E  E  E  E     E  E  E  E  E  E  E  E   
--------------------------|--------------------------|
--------------------------|--------------------------|
--------------------------|--------------------------|
--------------------------|--------------------------|
--------------------------|--------------------------|
--2--2--0--2--2--2--0--2--|--2--2--0--2--2--2--0--2--|


  E  E  E  E  E  E  E  E     E  E  E  E  S S S S S S S S  
--------------------------|------------------------------|
--------------------------|------------------------------|
--------------------------|------------------------------|
--------------------------|------------------------------|
--------------------------|--------------7-7-7-7-7-7-7-7-|
--2--2--0--2--2--2--0--2--|--2--2--0--2------------------|


  E  E  E  S S E  E  E  S S    E  E  E  S S E  E  Q     
-----0------------0---------|-----0--------------------|
-----0------------0---------|-----0--------------------|
----------------------------|--------------------------|
----------------------------|--------------------------|
----------------------------|--------------------------|
--2--------2-2-2--------2-2-|--2--------2-2-5--5--7----|


  E  E  E  S S E  E  E  S S    E  E  E  S S E  E  E  E    
-----0------------0---------|-----0----------------------|
-----0------------0---------|-----0----------------------|
----------------------------|----------------------------|
----------------------------|----------------------------|
----------------------------|----------------------------|
--2--------2-2-2--------2-2-|--2--------2-2-7--7--5--L\--|


  E  E  E  S S E  E  E  S S    E  E  E  S S E  E  Q     
-----0------------0---------|-----0--------------------|
-----0------------0---------|-----0--------------------|
----------------------------|--------------------------|
----------------------------|--------------------------|
----------------------------|--------------------------|
--2--------2-2-2--------2-2-|--2--------2-2-5--5--7----|


  E  E  E  S S E  E  E  S S    E  E  E  S S E  E  E  E      E  E  H.            
-----0------------0---------|-----0----------------------|---------------------|
-----0------------0---------|-----0----------------------|--------5------------|
----------------------------|----------------------------|-----6---------------|
----------------------------|----------------------------|--7------------------|
----------------------------|----------------------------|---------------------|
--2--------2-2-2--------2-2-|--2--------2-2-7--7--5--L\--|---------------------|


  E  E  Q    E  E  Q       Q    Q    E  E  E  E     E  E  E  E  E  E  E  E    
------------------------|---------------------0--|--L------------------------|
--------4----------3----|---------------0--L-----|-----0--L--------0---------|
-----5----------4-------|------------3-----------|-----------3--L-----3------|
--6----------5----------|-------4----------------|-----------------------4S--|
------------------------|------------------------|---------------------------|
------------------------|------------------------|---------------------------|


                                                  Chorus 1                     
  E  E  H.              E  E  Q    E  E  Q        Q    Q    E  E  E  E   
---------------------|------------------------||---------------------0--|
--------5------------|--------7----------3----||---------------0--L-----|
-----6---------------|-----8----------4-------||------------3-----------|
--7------------------|--9----------5----------||-------4----------------|
---------------------|------------------------||------------------------|
---------------------|------------------------||------------------------|


  E  E  E  E  E  E  E  E     Q    Q    E  E  E  E     Q    Q    H         
--L-----------------------|---------------------0--|--L------------------||
-----0--L--------0--------|---------------0--L-----|---------------------||
-----------3--L-----3-----|------------3-----------|---------------------||
-----------------------4--|--L----4----------------|---------------------||
--------------------------|------------------------|---------------------||
--------------------------|------------------------|---------------------||


  Guitar Break                                                     
  E  E  E  S S E  E  E  S S    E  E  E  S S E  E   Q     
----------------------------|---------------------------|
----------------------------|---------------------------|
----------------------------|---------------------------|
----------------------------|---------------------------|
----------------------------|---------------------------|
--2--2-----2-2-2--2-----2-2-|--2--2-----2-2-5--5S--7----|


  E  E  E  S S E  E  E  S S    E  E  E  S S E  E   Q     
----------------------------|---------------------------|
----------------------------|---------------------------|
----------------------------|---------------------------|
----------------------------|---------------------------|
----------------------------|---------------------------|
--2--2-----2-2-2--2-----2-2-|--2--2-----2-2-7--7S--5----|


  E  E  E  S S E  E  E  S S    E  E  E  S S E  E   Q     
----------------------------|---------------------------|
----------------------------|---------------------------|
----------------------------|---------------------------|
----------------------------|---------------------------|
----------------------------|---------------------------|
--2--2-----2-2-2--2-----2-2-|--2--2-----2-2-5--5S--7----|


  E  E  E  S S E  E  E  S S    E  E  E  S S E  E   Q     
----------------------------|---------------------------||
----------------------------|---------------------------||
----------------------------|---------------------------||
----------------------------|---------------------------||
----------------------------|---------------------------||
--2--2-----2-2-2--2-----2-2-|--2--2-----2-2-0--0S--1----||


  Verse 2                                                            
  E  E   Q    H           W                   W                 
-----------------------|-------------------|-------------------|
-----------------------|-------------------|-------------------|
-----------------------|-------------------|-------------------|
-----------------------|-------------------|-------------------|
-----------------------|-------------------|-------------------|
--2--L\----------------|-------------------|-------------------|


                          PM PM PM PM PM PM PM PM    PM PM PM PM PM PM PM PM  
  H        Q     Q        E  E  E  E  E  E  E  E     E  E  E  E  E  E  E  E   
-----------------------|--------------------------|--------------------------|
----------------(0)----|--------------------------|--------------------------|
----------------(0)----|--------------------------|--------------------------|
-----------------------|--------------------------|--------------------------|
-----------------------|--------------------------|--------------------------|
-----------------------|--2--2--0--2--2--2--0--2--|--2--2--0--2--2--2--0--2--|


  E  E  E  E  E  E  E  E     E  E  E  E  S S S S S S S S  
--------------------------|------------------------------|
--------------------------|------------------------------|
--------------------------|------------------------------|
--------------------------|------------------------------|
--------------------------|--------------7-7-7-7-7-7-7-7-|
--2--2--0--2--2--2--0--2--|--2--2--0--2------------------|


  E  E  E  S S E  E  E  S S    E  E  E  S S E  E  Q     
-----0------------0---------|-----0--------------------|
-----0------------0---------|-----0--------------------|
----------------------------|--------------------------|
----------------------------|--------------------------|
----------------------------|--------------------------|
--2--------2-2-2--------2-2-|--2--------2-2-5--5--7----|


  E  E  E  S S E  E  E  S S    E  E  E  S S E  E  E  E    
-----0------------0---------|-----0----------------------|
-----0------------0---------|-----0----------------------|
----------------------------|----------------------------|
----------------------------|----------------------------|
----------------------------|----------------------------|
--2--------2-2-2--------2-2-|--2--------2-2-7--7--5--L\--|


  E  E  E  S S E  E  E  S S    E  E  E  S S E  E  Q     
-----0------------0---------|-----0--------------------|
-----0------------0---------|-----0--------------------|
----------------------------|--------------------------|
----------------------------|--------------------------|
----------------------------|--------------------------|
--2--------2-2-2--------2-2-|--2--------2-2-5--5--7----|


  E  E  E  S S E  E  E  S S    E  E  E  S S E  E  E  E      E  E  H.            
-----0------------0---------|-----0----------------------|---------------------|
-----0------------0---------|-----0----------------------|--------5------------|
----------------------------|----------------------------|-----6---------------|
----------------------------|----------------------------|--7------------------|
----------------------------|----------------------------|---------------------|
--2--------2-2-2--------2-2-|--2--------2-2-7--7--5--L\--|---------------------|


  E  E  Q    E  E  Q       Q    Q    E  E  E  E     E  E  E  E  E  E  E  E    
------------------------|---------------------0--|--L------------------------|
--------4----------3----|---------------0--L-----|-----0--L--------0---------|
-----5----------4-------|------------3-----------|-----------3--L-----3------|
--6----------5----------|-------4----------------|-----------------------4S--|
------------------------|------------------------|---------------------------|
------------------------|------------------------|---------------------------|


                                                  Chorus 2                     
  E  E  H.              E  E  Q    E  E  Q        Q    Q    E  E  E  E   
---------------------|------------------------||---------------------0--|
--------5------------|--------7----------3----||---------------0--L-----|
-----6---------------|-----8----------4-------||------------3-----------|
--7------------------|--9----------5----------||-------4----------------|
---------------------|------------------------||------------------------|
---------------------|------------------------||------------------------|


  E  E  E  E  E  E  E  E     Q    Q    E  E  E  E     E  E  E  E  E  E  E  E   
--L-----------------------|---------------------0--|--L-----------------------|
-----0--L--------0--------|---------------0--L-----|-----0--L--------0--------|
-----------3--L-----3-----|------------3-----------|-----------3--L-----3-----|
-----------------------4--|--L----4----------------|-----------------------4--|
--------------------------|------------------------|--------------------------|
--------------------------|------------------------|--------------------------|


  Q    Q    E  E  E  E     E  E  E  E  E  E  E  E     Q    Q    E  E  E  E   
---------------------0--|--L-----------------------|---------------------0--|
---------------0--L-----|-----0--L--------0--------|---------------0--L-----|
------------3-----------|-----------3--L-----3-----|------------3-----------|
--L----4----------------|-----------------------4--|--L----4----------------|
------------------------|--------------------------|------------------------|
------------------------|--------------------------|------------------------|


                       Breakdown                 
  W                    W              
--L----------------||--L----------------||
-------------------||-------------------||
-------------------||-------------------||
-------------------||-------------------||
-------------------||-------------------||
-------------------||-------------------||


  m.92                                               
                     NH                               
  H        Q      Q       E  E  E  E  E  E  E  E   
-----------------------|--------------------------|
-----------------------|--------------------------|
----------------<>4----|--------------------------|
-----------------------|--------------------------|
-----------------------|--------------------------|
-----------------------|--2--2--0--2--2--2--0--2--|


  E  E  E  E  E  E  E  E     E  E  E  E  E  E  E  E   
--------------------------|--------------------------|
--------------------------|--------------------------|
--------------------------|--------------------------|
--------------------------|--------------------------|
--------------------------|--------------------------|
--2--2--0--2--2--2--0--2--|--2--2--0--2--2--2--0--2--|


                                  Verse 3                         
  E  E  E  E  S S S S S S S S     E  E  E  S S E  E  E  S S  
------------------------------||-----0------------0---------|
------------------------------||-----0------------0---------|
------------------------------||----------------------------|
------------------------------||----------------------------|
--------------7-7-7-7-7-7-7-7-||----------------------------|
--2--2--0--2------------------||--2--------2-2-2--------2-2-|


  E  E  E  S S E  E  Q       E  E  E  S S E  E  E  S S  
-----0--------------------|-----0------------0---------|
-----0--------------------|-----0------------0---------|
--------------------------|----------------------------|
--------------------------|----------------------------|
--------------------------|----------------------------|
--2--------2-2-5--5--7----|--2--------2-2-2--------2-2-|


  E  E  E  S S E  E  E  E      E  E  E  S S E  E  E  S S  
-----0----------------------|-----0------------0---------|
-----0----------------------|-----0------------0---------|
----------------------------|----------------------------|
----------------------------|----------------------------|
----------------------------|----------------------------|
--2--------2-2-7--7--5--L\--|--2--------2-2-2--------2-2-|


  E  E  E  S S E  E  Q       E  E  E  S S E  E  E  S S  
-----0--------------------|-----0------------0---------|
-----0--------------------|-----0------------0---------|
--------------------------|----------------------------|
--------------------------|----------------------------|
--------------------------|----------------------------|
--2--------2-2-5--5--7----|--2--------2-2-2--------2-2-|


  E  E  E  S S E  E  E  E      E  E  H.              E  E  Q    E  E  Q     
-----0----------------------|---------------------|------------------------|
-----0----------------------|--------5------------|--------4----------3----|
----------------------------|-----6---------------|-----5----------4-------|
----------------------------|--7------------------|--6----------5----------|
----------------------------|---------------------|------------------------|
--2--------2-2-7--7--5--L\--|---------------------|------------------------|


  Q    Q    E  E  E  E     E  E  E  E  E  E  E  E     E  E  H.            
---------------------0--|--L-----------------------|---------------------|
---------------0--L-----|-----0--L--------0--------|--------5------------|
------------3-----------|-----------3--L-----3-----|-----6---------------|
-------4----------------|-----------------------4--|--7------------------|
------------------------|--------------------------|---------------------|
------------------------|--------------------------|---------------------|


                            Chorus 3                                                
  E  E  Q    E  E  Q        Q    Q    E  E  E  E     E  E  E  E  E  E  E  E   
------------------------||---------------------0--|--L-----------------------|
--------4----------3----||---------------0--L-----|-----0--L--------0--------|
-----5----------4-------||------------3-----------|-----------3--L-----3-----|
--6----------5----------||-------4----------------|-----------------------4--|
------------------------||------------------------|--------------------------|
------------------------||------------------------|--------------------------|


  Q    Q    E  E  E  E     E  E  E  E  E  E  E  E     Q    Q    E  E  E  E   
---------------------0--|--L-----------------------|---------------------0--|
---------------0--L-----|-----0--L--------0--------|---------------0--L-----|
------------3-----------|-----------3--L-----3-----|------------3-----------|
--L----4----------------|-----------------------4--|--L----4----------------|
------------------------|--------------------------|------------------------|
------------------------|--------------------------|------------------------|


  E  E  E  E  E  E  E  E     Q    Q    E  E  E  E     Q    Q    H         
--L-----------------------|---------------------0--|--L------------------||
-----0--L--------0--------|---------------0--L-----|---------------------||
-----------3--L-----3-----|------------3-----------|---------------------||
-----------------------4--|--L----4----------------|---------------------||
--------------------------|------------------------|---------------------||
--------------------------|------------------------|---------------------||


  Outro                                                   
  E  E  E  E  E  E  E  E     E  E  E  E  E  E  E  E   
--------------------------|--------------------------|
--------------------------|--------------------------|
--------------------------|--------------------------|
--------------------------|--------------------------|
--------------------------|--------------------------|
--2--2--0--2--2--2--0--2--|--2--2--0--2--2--2--0--2--|


  E  E  E  E  E  E  E  E     E  E  E  E  E  E  E  E   
--------------------------|--------------------------|
--------------------------|--------------------------|
--------------------------|--------------------------|
--------------------------|--------------------------|
--------------------------|--------------------------|
--2--2--0--2--2--2--0--2--|--2--2--0--2--2--0--0--1--|


  E  E  E  E  E  E  E  E     E  E  E  E  E  E  E  E   
--------------------------|--------------------------|
--------------------------|--------------------------|
--------------------------|--------------------------|
--------------------------|--------------------------|
--------------------------|--------------------------|
--2--2--0--2--2--2--0--2--|--2--2--0--2--2--2--0--2--|


  E  E  E  E  E  E  E  E     E  E  E  E  E  E  E  E   
--------------------------|--------------------------|
--------------------------|--------------------------|
--------------------------|--------------------------|
--------------------------|--------------------------|
--------------------------|--------------------------|
--2--2--0--2--2--2--0--2--|--2--2--0--2--2--2--0--2--|


  E  E  E  E  E  E  E  E     E  E  E  E  E  E  E  E   
--------------------------|--------------------------|
--------------------------|--------------------------|
--------------------------|--------------------------|
--------------------------|--------------------------|
--------------------------|--------------------------|
--2--2--0--2--2--2--0--2--|--2--2--0--2--2--2--0--2--|


  E  E  E  E  E  E  E  E    
--------------------------||
--------------------------||
--------------------------||
--------------------------||
--------------------------||
--2--2--0--2--2--2--0--2--||




Guitar - right

     Intro                                                     
     E  E  E  S S S S E  E  E     E  E  E  E   Q     Q     
E||----------------------------|--------------------------|
B||----------------------------|--------------------------|
G||----------------------------|--------------------------|
D||----------------------------|--------------------------|
A||----------------------------|--------------------------|
E||--2--2-----2-2-2-2-2-----2--|--2--2-----2S--5S----7----|


  E  E  E  S S S S E  E  E     E  E  E  E  E  E  E  E   
----------------------------|--------------------------|
----------------------------|--------------------------|
----------------------------|--------------------------|
----------------------------|--------------------------|
----------------------------|--------------------------|
--2--2-----2-2-2-2-2-----2--|--2--2-----2--0--0--1--1--|


  E  E  E  S S S S E  E  E     E  E  E  E   Q     Q     
----------------------------|--------------------------|
----------------------------|--------------------------|
----------------------------|--------------------------|
----------------------------|--------------------------|
----------------------------|--------------------------|
--2--2-----2-2-2-2-2-----2--|--2--2-----2S--5S----7----|


  E  E  E  S S S S E  E  E     E  E  E  S S S S S S E  E   
----------------------------|-----------------------------|
----------------------------|-----------------------------|
----------------------------|-----------------------------|
----------------------------|-----------------------------|
----------------------------|-----------------------------|
--2--2-----2-2-2-2-2-----2--|--2--2-----2-2-0-0-0-0-1--1--|


  E  E  E  E  S S E  E  E     E  E  E  E   Q     Q     
---------------------------|--------------------------|
---------------------------|--------------------------|
---------------------------|--------------------------|
---------------------------|--------------------------|
---------------------------|--------------------------|
--2--2-----2--2-2-2-----2--|--2--2-----2S--5S----7----|


  E  E  E  E  S S E  E  E     E  E  E  E  E  E  E  E   
---------------------------|--------------------------|
---------------------------|--------------------------|
---------------------------|--------------------------|
---------------------------|--------------------------|
---------------------------|--------------------------|
--2--2-----2--2-2-2-----2--|--2--2-----2--0--0--1--1--|


  E  E  E  E  S S E  E  E     E  E  E  E   Q     Q     
---------------------------|--------------------------|
---------------------------|--------------------------|
---------------------------|--------------------------|
---------------------------|--------------------------|
---------------------------|--------------------------|
--2--2-----2--2-2-2-----2--|--2--2-----2S--5S----7----|


                                                          Verse 1                    
  E  E  E  E  S S E  E  E     E  E  E  E  E  E  E  E      E  E   Q    H         
---------------------------|--------------------------||-----------------------|
---------------------------|--------------------------||-----------------------|
---------------------------|--------------------------||-----------------------|
---------------------------|--------------------------||-----------------------|
---------------------------|--------------------------||-----------------------|
--2--2-----2--2-2-2-----2--|--2--2-----2--0--0--1--1--||--2--2p--0-------------|


  W                   W                   W                 
-------------------|-------------------|-------------------|
-------------------|-------------------|-------------------|
-------------------|-------------------|-------------------|
-------------------|-------------------|-------------------|
-------------------|-------------------|-------------------|
-------------------|-------------------|-------------------|


  PM PM PM PM PM PM PM PM    PM PM PM PM PM PM PM PM  
  E  E  E  E  E  E  E  E     E  E  E  E  E  E  E  E   
--------------------------|--------------------------|
--------------------------|--------------------------|
--------------------------|--------------------------|
--------------------------|--------------------------|
--------------------------|--------------------------|
--2--2--0--2--2--2--0--2--|--2--2--0--2--2--2--0--2--|


  E  E  E  E  E  E  E  E     E  E  E  E  S S S S S S S S  
--------------------------|------------------------------|
--------------------------|------------------------------|
--------------------------|------------------------------|
--------------------------|------------------------------|
--------------------------|--------------7-7-7-7-7-7-7-7-|
--2--2--0--2--2--2--0--2--|--2--2--0--2------------------|


  E  E  E  S S E  E  E  S S    E  E  E  S S E  E  Q     
----------------------------|--------------------------|
----------------------------|--------------------------|
----------------------------|--------------------------|
----------------------------|--------------------------|
----------------------------|--------------------------|
--2--2-----2-2-2--2-----2-2-|--2--2-----2-2-5--5--7----|


  E  E  E  S S E  E  E  S S    E  E  E  S S E  E  E  E    
----------------------------|----------------------------|
----------------------------|----------------------------|
----------------------------|----------------------------|
----------------------------|----------------------------|
----------------------------|----------------------------|
--2--2-----2-2-2--2-----2-2-|--2--2-----2-2-7--7--5--L\--|


  E  E  E  S S E  E  E  S S    E  E  E  S S E  E  Q     
----------------------------|--------------------------|
----------------------------|--------------------------|
----------------------------|--------------------------|
----------------------------|--------------------------|
----------------------------|--------------------------|
--2--2-----2-2-2--2-----2-2-|--2--2-----2-2-5--5--7----|


  E  E  E  S S E  E  E  S S    E  E  E  S S E  E  E  E    
----------------------------|----------------------------|
----------------------------|----------------------------|
----------------------------|----------------------------|
----------------------------|----------------------------|
----------------------------|----------------------------|
--2--2-----2-2-2--2-----2-2-|--2--2-----2-2-7--7--5--L\--|


  E  E  E  E  E  E  E  E     E  E  Q    E  E  Q     
--------------------------|------------------------|
--------------------------|------------------------|
--------------------------|------------------------|
--------------------------|------------------------|
--7--7--7--7--7--7--7--7--|--6--6--6----5--5--5----|
--5--5--5--5--5--5--5--5--|--4--4--4----3--3--3----|


  E  E  E  S S E  E  E  S S    E  E  E  S S E  E  Q     
----------------------------|--------------------------|
----------------------------|--------------------------|
----------------------------|--------------------------|
----------------------------|--------------------------|
----------------------------|--------------------------|
--2--2-----2-2-2--2-----2-2-|--2--2-----2-2-2--2--2----|


  E  E  E  E  E  E  E  E     E  E  Q    E  E  Q     
--------------------------|------------------------||
--------------------------|------------------------||
--------------------------|------------------------||
--------------------------|------------------------||
--7--7--7--7--7--7--7--7--|--9--9--9----5--5--5----||
--5--5--5--5--5--5--5--5--|--7--7--7----3--3--3----||


  Chorus 1                                                    
  E  E  E  S S E  E  E  S S    E  E  E  S S E  E  Q     
----------------------------|--------------------------|
----------------------------|--------------------------|
----------------------------|--------------------------|
----------------------------|--------------------------|
----------------------------|--------------------------|
--2--2-----2-2-2--2-----2-2-|--2--2-----2-2-5--5--7----|


                                                      Guitar Break                         
  E  E  E  S S E  E  E  S S    Q    Q    H            E  E  E  S S E  E  E  S S  
----------------------------|---------------------||----------------------------|
----------------------------|---------------------||----------------------------|
----------------------------|---------------------||----------------------------|
----------------------------|---------------------||----------------------------|
----------------------------|---------------------||----------------------------|
--2--2-----2-2-2--2-----2-2-|--2------------------||--2--2-----2-2-2--2-----2-2-|


  E  E  E  S S E  E  Q       E  E  E  S S E  E  E  S S  
--------------------------|----------------------------|
--------------------------|----------------------------|
--------------------------|----------------------------|
--------------------------|----------------------------|
--------------------------|----------------------------|
--2--2-----2-2-5--5--7----|--2--2-----2-2-2--2-----2-2-|


  E  E  E  S S E  E  Q       E  E  E  S S E  E  E  S S  
--------------------------|----------------------------|
--------------------------|----------------------------|
--------------------------|----------------------------|
--------------------------|----------------------------|
--------------------------|----------------------------|
--2--2-----2-2-7--7--5----|--2--2-----2-2-2--2-----2-2-|


  E  E  E  S S E  E  Q       E  E  E  S S E  E  E  S S  
--------------------------|----------------------------|
--------------------------|----------------------------|
--------------------------|----------------------------|
--------------------------|----------------------------|
--------------------------|----------------------------|
--2--2-----2-2-5--5--7----|--2--2-----2-2-2--2-----2-2-|


                              Verse 2                                       
  E  E  E  S S E  E  Q        E  E  Q    H           W                 
--------------------------||----------------------|-------------------|
--------------------------||----------------------|-------------------|
--------------------------||----------------------|-------------------|
--------------------------||----------------------|-------------------|
--------------------------||----------------------|-------------------|
--2--2-----2-2-0--0--1----||--2--2--0-------------|-------------------|


                                      NH      PM PM PM PM       >       
  W                   H        Q      Q       E  E  E  E  E  E  E   E   
-------------------|-----------------------|---------------------------|
-------------------|-----------------------|---------------------------|
-------------------|----------------<>3----|---------------------------|
-------------------|-----------------------|---------------------------|
-------------------|-----------------------|---------------------------|
-------------------|-----------------------|--2--2--0--2-----2--0h--2--|


  PM PM                                                
  E  E  E   E  E  E  E  E     E  E  E  E  E  E  E  E   
---------------------------|--------------------------|
---------------------------|--------------------------|
---------------------------|--------------------------|
---------------------------|--------------------------|
---------------------------|--------------------------|
--2--2--0h--2--2--2--0--2--|--2--2--0--2--2--2--0--2--|


  E  E  E  E  E  E  E  E     E  E  E  S S E  E  E  S S  
--------------------------|----------------------------|
--------------------------|----------------------------|
--------------------------|----------------------------|
--------------------------|----------------------------|
--------------------------|----------------------------|
--2--2--2--2--2--2--2--2--|--2--2-----2-2-2--2-----2-2-|


  E  E  E  S S E  E  E  E      E  E  E  S S E  E  E  S S  
----------------------------|----------------------------|
----------------------------|----------------------------|
----------------------------|----------------------------|
----------------------------|----------------------------|
----------------------------|----------------------------|
--2--2-----2-2-5--5--7--7S--|--2--2-----2-2-2--2-----2-2-|


  E  E  E  S S  E  E  Q       E  E  E  S S E  E  E  S S  
---------------------------|----------------------------|
---------------------------|----------------------------|
---------------------------|----------------------------|
---------------------------|----------------------------|
---------------------------|----------------------------|
--2--2-----2-2s-7--7--5----|--2--2-----2-2-2--2-----2-2-|


  E  E  E  S S E  E  Q       E  E  E  S S E  E  E  S S  
--------------------------|----------------------------|
--------------------------|----------------------------|
--------------------------|----------------------------|
--------------------------|----------------------------|
--------------------------|----------------------------|
--2--2-----2-2-5--5--7----|--2--2-----2-2-2--2-----2-2-|


  E  E  E  S S  E  E  Q       Q    Q    E  E  E  E     E  E  E  E  E  E  E  E   
---------------------------|------------------------|--------------------------|
---------------------------|------------------------|--------------------------|
---------------------------|------------------------|--------------------------|
---------------------------|------------------------|--------------------------|
---------------------------|--7----7----------------|--------------------------|
--2--2-----2-2s-7--7--5----|--5----5----5--5--5--5--|--4--4--4--4--3--3--3--3--|


  E  E  E  S S E  E  E  S S    E  E  E  S S E  E  E  E   
----------------------------|---------------------------|
----------------------------|---------------------------|
----------------------------|---------------------------|
----------------------------|---------------------------|
----------------------------|---------------------------|
--2--2-----2-2-2--2-----2-2-|--2--2-----2-2-2--2--2--2--|


  E  S S E  S S E  E  E  E     E  S S E  E  E  S S E  E   
----------------------------|----------------------------||
----------------------------|----------------------------||
----------------------------|----------------------------||
----------------------------|----------------------------||
----------------------------|----------------------------||
--5--5-5-5--5-5-5--5--5--5--|--7--7-7-7--7--3--3-3-3--3--||


  Chorus 2                                                    
  E  E  E  S S E  E  E  S S    E  E  E  S S E  E  Q     
----------------------------|--------------------------|
----------------------------|--------------------------|
----------------------------|--------------------------|
----------------------------|--------------------------|
----------------------------|--------------------------|
--2--2-----2-2-2--2-----2-2-|--2--2-----2-2-5--5--7----|


  E  E  E  S S E  E  E  S S    E  E  E  S S E  E  E  E   
----------------------------|---------------------------|
----------------------------|---------------------------|
----------------------------|---------------------------|
----------------------------|---------------------------|
----------------------------|---------------------------|
--2--2-----2-2-2--2-----2-2-|--2--2-----2-2-0--0--1--1--|


  E  E  E  S S E  E  E  S S    E  E  E  S S E  E  Q     
----------------------------|--------------------------|
----------------------------|--------------------------|
----------------------------|--------------------------|
----------------------------|--------------------------|
----------------------------|--------------------------|
--2--2-----2-2-2--2-----2-2-|--2--2-----2-2-5--5--7----|


                                                      Breakdown                
  E  E  E  S S E  E  E  S S    Q    Q    H            W             
----------------------------|---------------------||-------------------|
----------------------------|---------------------||-------------------|
----------------------------|---------------------||-------------------|
----------------------------|---------------------||-------------------|
----------------------------|---------------------||-------------------|
--2--2-----2-2-2--2-----2-2-|--2------------------||-------------------|


   use pickup selector switch                                                 
   E   S  S S  S  E   E   E  Q       W                 
--12---12-12---12-12--12--12-------|-------------------|
-----------------------------------|-------------------|
-----------------------------------|-------------------|
-----------------------------------|-------------------|
-----------------------------------|-------------------|
-----------------------------------|-------------------|


   E   S  S S  S  E   E   E  Q       W                 
--12--12-12---12-12--12--12-------|-------------------|
----------------------------------|-------------------|
----------------------------------|-------------------|
----------------------------------|-------------------|
----------------------------------|-------------------|
----------------------------------|-------------------|


   E   S  S S  S  E   E   E  Q       W                 
--12--12-12---12-12--12--12-------|-------------------|
----------------------------------|-------------------|
----------------------------------|-------------------|
----------------------------------|-------------------|
----------------------------------|-------------------|
----------------------------------|-------------------|


   E   S  S S  S  E   E   E  Q       W                   W                 
--12--12-12---12-12--12--12-------|-------------------|-------------------|
----------------------------------|-------------------|-------------------|
----------------------------------|-------------------|-------------------|
----------------------------------|-------------------|-------------------|
----------------------------------|-------------------|-------------------|
----------------------------------|-------------------|-------------------|


                                      NH      PM PM PM PM PM PM PM PM  
  W                   H        Q      Q       E  E  E  E  E  E  E  E   
-------------------|-----------------------|--------------------------|
-------------------|-----------------------|--------------------------|
-------------------|----------------<>7----|--------------------------|
-------------------|-----------------------|--------------------------|
-------------------|-----------------------|--------------------------|
-------------------|-----------------------|--2--2--0--2--2--2--0--2--|


  E  E  E  E  E  E  E  E     E  E  E  E  E  E  E  E   
--------------------------|--------------------------|
--------------------------|--------------------------|
--------------------------|--------------------------|
--------------------------|--------------------------|
--------------------------|--------------------------|
--2--2--0--2--2--2--0--2--|--2--2--0--2--2--2--0--2--|


                              Verse 3                         
  E  E  E  E  E  E  E  E      E  E  E  S S E  E  E  S S  
--------------------------||----------------------------|
--------------------------||----------------------------|
--------------------------||----------------------------|
--------------------------||----------------------------|
--------------------------||----------------------------|
--2--2--2--2--2--2--2--2--||--2--2-----2-2-2--2-----2-2-|


  E  E  E  S S E  E  E  E      E  E  E  S S E  E  E  S S  
----------------------------|----------------------------|
----------------------------|----------------------------|
----------------------------|----------------------------|
----------------------------|----------------------------|
----------------------------|----------------------------|
--2--2-----2-2-5--5--7--L\--|--2--2-----2-2-2--2-----2-2-|


  E  E  E  S S  E  E  Q       E  E  E  S S E  E  E  S S  
---------------------------|----------------------------|
---------------------------|----------------------------|
---------------------------|----------------------------|
---------------------------|----------------------------|
---------------------------|----------------------------|
--2--2-----2-2s-7--7--5----|--2--2-----2-2-2--2-----2-2-|


  E  E  E  S S E  E  E  E      E  E  E  S S E  E  E  E   
----------------------------|---------------------------|
----------------------------|---------------------------|
----------------------------|---------------------------|
----------------------------|---------------------------|
----------------------------|---------------------------|
--2--2-----2-2-5--5--7--L\--|--2--2-----2-2-2--2--2--2--|


  E  E  E  S S  E  E  Q       Q    E  E  E  E  E  E     E  E  Q    E  E  Q     
---------------------------|-------------------------|------------------------|
---------------------------|-------------------------|------------------------|
---------------------------|-------------------------|--------5---------------|
---------------------------|-------------------------|--------6----------5----|
---------------------------|-------------------------|--------6----------5----|
--2--2-----2-2s-7--7--5----|--5----5--5--5--5--5--5--|--4--4--4----3--3--3----|


  E  E  E  S S E  E  E  S S    E  E  E  S S E  E  E  E   
----------------------------|---------------------------|
----------------------------|---------------------------|
----------------------------|---------------------------|
----------------------------|---------------------------|
----------------------------|---------------------------|
--2--2-----2-2-2--2-----2-2-|--2--2-----2-2-2--2--2--2--|


  Q    E  S S E  E  E  E     E  E  E  S S E  E  E  E   
--------------------------|---------------------------||
--------------------------|---------------------------||
--------------------------|---------------------------||
--------------------------|---------------------------||
-------7------------------|---------------------------||
--5----5--5-5-5--5--5--5--|--4--4--4--4-4-3--3--3--3--||


  Chorus 3                                                    
  E  E  E  S S E  E  E  S S    E  E  E  S S E  E  Q     
----------------------------|--------------------------|
----------------------------|--------------------------|
----------------------------|--------------------------|
----------------------------|--------------------------|
----------------------------|--------------------------|
--2--2-----2-2-2--2-----2-2-|--2--2-----2-2-5--5--7----|


  E  E  E  S S E  E  E  S S    E  E  E  S S E  E  E  E   
----------------------------|---------------------------|
----------------------------|---------------------------|
----------------------------|---------------------------|
----------------------------|---------------------------|
----------------------------|---------------------------|
--2--2-----2-2-2--2-----2-2-|--2--2-----2-2-0--0--1--1--|


  E  E  E  S S E  E  E  S S    E  E  E  S S E  E  Q     
----------------------------|--------------------------|
----------------------------|--------------------------|
----------------------------|--------------------------|
----------------------------|--------------------------|
----------------------------|--------------------------|
--2--2-----2-2-2--2-----2-2-|--2--2-----2-2-5--5--7----|


                                                      Outro                        
  E  E  E  S S E  E  E  S S    Q    Q    H            E  E  E  E  E  E  E  E   
----------------------------|---------------------||--------------------------|
----------------------------|---------------------||--------------------------|
----------------------------|---------------------||--------------------------|
----------------------------|---------------------||--------------------------|
----------------------------|---------------------||--------------------------|
--2--2-----2-2-2--2-----2-2-|--2------------------||--2--2--0--2--2--2--0--2--|


  E  E  E  E  E  E  E  E     E  E  E  E  E  E  E  E   
--------------------------|--------------------------|
--------------------------|--------------------------|
--------------------------|--------------------------|
--------------------------|--------------------------|
--------------------------|--------------------------|
--2--2--0--2--2--2--0--2--|--2--2--0--2--2--2--0--2--|


  E  E  E  E  E  E  E  E     E  E  E  E  E  E  E  E   
--------------------------|--------------------------|
--------------------------|--------------------------|
--------------------------|--------------------------|
--------------------------|--------------------------|
--------------------------|--------------------------|
--2--2--0--2--2--0--0--1--|--2--2--0--2--2--2--0--2--|


  E  E  E  E  E  E  E  E     E  E  E  E  E  E  E  E   
--------------------------|--------------------------|
--------------------------|--------------------------|
--------------------------|--------------------------|
--------------------------|--------------------------|
--------------------------|--------------------------|
--2--2--0--2--2--2--0--2--|--2--2--0--2--2--2--0--2--|


  E  E  E  E  E  E  E  E     E  E  E  E  E  E  E  E   
--------------------------|--------------------------|
--------------------------|--------------------------|
--------------------------|--------------------------|
--------------------------|--------------------------|
--------------------------|--------------------------|
--2--2--0--2--2--2--0--2--|--2--2--0--2--2--2--0--2--|


  E  E  E  E  E  E  E  E     E  E  E  E  E  E  E  E    
--------------------------|--------------------------||
--------------------------|--------------------------||
--------------------------|--------------------------||
--------------------------|--------------------------||
--------------------------|--------------------------||
--2--2--0--2--2--2--0--2--|--2--2--0--2--2--2--0--2--||




Guitar - lead

      Guitar Break - m.43                                              
      S  S  S  S  S  S  S  S  S  S  S  S  S  S  S  S  
E||--------------------------------------------------|
B||--------------------------------------------------|
G||--14-14-14-14-14-14-14-14-14-14-14-14-14-14-14-14-|
D||--------------------------------------------------|
A||--------------------------------------------------|
E||--------------------------------------------------|


   S  S  S  S  E   E   S   S  S  S  Q      
------------------------------------------|
------------------------------------------|
--14-14-14-14-14--14--14s-11-11-11-11~----|
------------------------------------------|
------------------------------------------|
------------------------------------------|


   S  S  S  S  S  S  S  S  S  S  S  S  S  S  S  S  
--------------------------------------------------|
--------------------------------------------------|
--14-14-14-14-14-14-14-14-14-14-14-14-14-14-14-14-|
--------------------------------------------------|
--------------------------------------------------|
--------------------------------------------------|


   S  S  S  S  E   E   S   S  S  S  Q      
------------------------------------------|
------------------------------------------|
--14-14-14-14-14--14--14s-11-11-11-11~----|
------------------------------------------|
------------------------------------------|
------------------------------------------|


   E   E     S  S  E   E    E   E   S  S     E   S  S S  S  E   E   E   Q     
-----------------------------------------|-----------------------------------|
------16br--16--x-----14---14------------|--14--16-14----------14--16--14----|
------16br--16--x-----14b--14b------x--x-|--14--16-14----x--x--14--16--14----|
--16--------------16----------------x--x-|---------------x--x----------------|
-----------------------------------------|-----------------------------------|
-----------------------------------------|-----------------------------------|


   E   S  S S  S  E   E    E   E   S  S  
----------------------------------------|
--14-----------------14b--14b-----------|
--14--14-14----x--x--14b--14b------x--x-|
--14--14-14----x--x--14b--14b------x--x-|
----------------------------------------|
----------------------------------------|


   E   S  S S  S  E   E   E   E   E     
--------------------------------------|
--14-------------------------14---L\--|
--14--14-14----x--x--14--16--14---L\--|
--14--14-14----x--x--14--16--14---L\--|
--------------------------------------|
--------------------------------------|


    Outro - m.119 (3x)
    S  S  S  S  S  S  S  S  S  S  S  S  S  S  S  S  
|--------------------------------------------------|
|--11-11-11-11-11-11-11-11-11-11-11-11-11-11-11-11-|
|--11-11-11-11-11-11-11-11-11-11-11-11-11-11-11-11-|
|--11-11-11-11-11-11-11-11-11-11-11-11-11-11-11-11-|
|--------------------------------------------------|
|--------------------------------------------------|


   S  S  S  S  S  S  S  S  S  S  S  S  S  S  S  S  
--------------------------------------------------|
--11-11-11-11-11-11-11-11-11-11-11-11-11-11-11-12-|
--11-11-11-11-11-11-11-11-11-11-11-11-11-11-11-11-|
--11-11-11-11-11-11-11-11-11-11-11-11-11-11-11-13-|
--------------------------------------------------|
--------------------------------------------------|


   S  S  S  S  S  S  S  S  S  S  S  S  S  S  S  S  
--11-11-11-11-11-11-11-11-11-11-11-11-11-11-11-11-|
--12-12-12-12-12-12-12-12-12-12-12-12-12-12-12-12-|
--11-11-11-11-11-11-11-11-11-11-11-11-11-11-11-11-|
--13-13-13-13-13-13-13-13-13-13-13-13-13-13-13-13-|
--------------------------------------------------|
--------------------------------------------------|


   S  S  S  S  S  S  S  S  S  S  S  S  S  S  S  S   
--11-11-11-11-11-11-11-11-11-11-11-11-11-11-11-11-||
--12-12-12-12-12-12-12-12-12-12-12-12-12-12-12-12-||
--11-11-11-11-11-11-11-11-11-11-11-11-11-11-11-11-||
--13-13-13-13-13-13-13-13-13-13-13-13-13-13-13-13-||
--------------------------------------------------||
--------------------------------------------------||




Duration Legend
---------------
W - whole
H - half
Q - quarter
E - 8th
S - 16th


Get my other tabs for Guitar Pro, Powertab, guitar/bass text and chords at
http://profile.ultimate-guitar.com/TexasFury/contributions/
comments
We did not receive enough feedback on this tab! Please rate:
print report bad tab
1 2 3 4 5
I want to post or [tab]
guest
You may want to rate the tab now too:
select rating
Please do not post tabs as comments. Select "correction" instead!