Oops, an error
Loading. Please wait.

I Waited For You Tab

1,342 views 3 this week
1 commentread comment
1 2 3 4 5
excellent!
x 1
Autoscroll
+/-
esc
set tempo
stop
Contributor
Difficulty
Tuning
intermediate
D# G# C# F# A# D#
NEW! There's an official Ultimate Guitar app which is ideal
for learning songs when you're away from computer. Get the app
WARNING: You are trying to view
                                    content from Ultimate-Guitar.com
                                    in an unauthorized application,
                                    which is prohibited.

                                    Please use an official Ultimate
                                    Guitar Tabs application for iPhone,
                                    iPad or Android to access legitimate
                                    chords, guitar, bass, and drum tabs
                                    from Ultimate-Guitar.com database.

                                    Type "ultimate guitar tabs" in Apple
                                    App Store's or Android Market's
                                    search to find the application.
-------------------------------------------------------------------------------
           I Waited For You - Valora
-------------------------------------------------------------------------------
http://www.valoraofficial.com/

Tabbed by ear by: Jeff Maginniss
Email: peridot203@gmail.com

Tuning:
Guitar1: Downtune 1/2 Standard Eb-Ab-Db-Gb-Bb-eb
Guitar2: Downtune 1/2 Standard Eb-Ab-Db-Gb-Bb-eb
 -or-
Guitar2: Downtune 1/2 Drop-D Db-Ab-Db-Gb-Bb-eb (adjust low E tabs accordingly)

Tempo: steady rock beat

Performance note:
Let clean notes ring (guitar 1)
Pay attention to time changes after chorus!
Guitar 2 in dropped D will bring out more bass on 4th measure strumming D5



INTRO: TIME: 4/4

=========== Guitar 1 (clean, open) - band TACET

   A5               F5               A5               F5
  | 1   *   2   *   3   *   4   *   | 1   *   2   *   3   *   4   *   |
eb|---------------------------------|---------------------------------|
Bb|---------------------------------|---------------------------------|
Gb|---------4---------------5-------|---------4---------------5-------|
Db|-----2---------2/3---3-------3---|-2---2-------2---3---3-----------|
Ab|-0-0---0-----0-----0---0---------|---0---0-------0---0---0---------|
Eb|---------------------------------|---------------------------------|



VERSE 1: TIME: 4/4

=========== Guitar 1 (clean, open)

   A5               F5               A5               F5
  | 1   *   2   *   3   *   4   *   | 1   *   2   *   3   *   4   *   |
eb|---------------------------------|---------------------------------|
Bb|---------------------------------|---------------------------------|
Gb|---------4---------------5-------|---------4---------------5-------|
Db|-2---2-------2---3---3---------3-|-2---2-----------3---3-------3---|
Ab|---0---0-------0---0---0-----0---|---0---0-----0-----0---0---------|
Eb|---------------------------------|---------------------------------|

    Hold        the line                    never   re  treat I'll never


==|======== Guitar 1 (clean, open)
  | A5              F5                A5              F5
  | 1   *   2   *   3   *   4   *   | 1   *   2   *   3   *   4   *   |
eb|---------------------------------|---------------------------------|
Bb|---------------------------------|---------------------------------|
Gb|---------4---------------5-------|---------4---------------5-------|
Db|-2---2-------2---3---3---------3-|-2---2-----------3---3-------3---|
Ab|---0---0-------0---0---0-----0---|---0---0-----0-----0---0-------0-|
Eb|---------------------------------|---------------------------------|
  |                                 |                                 |
  | break      I've tried           |     but I'm  ad-dicted I can't  |
  |                                 |                                 |
==|======== Guitar 2 (dist.)        |                                 |
  | A5                              | A5                              |
  | 1   *   2   *   3   *   4   *   | 1   *   2   *   3   *   4   *   |
eb|---------------------------------|---------------------------------|
Bb|---------------------------------|---------------------------------|
Gb|-2-----------2-2-----------------|-2-----------2-2-----------------|
Db|-2-----------2-2-----------------|-2-----------2-2-----------------|
Ab|-0-----------0-0-----------------|-0-----------0-0-----------------|
Eb|---------------------------------|---------------------------------|
    ^ P.Mute    ^ ^ P.Mute            ^ P. Mute   ^ ^ P.Mute


==|======== Guitar 1 (clean, open)
  |
  | 1   *   2   *   3   *   4   *   | 1   *   2   *   3   *   4   *   |
eb|---------7-----------------------|---------------------------------|
Bb|-----8-------------------8-------|---------------------------------|
Gb|-7-------------7-7---7-------7---|---------4---------------5-------|
Db|---------------------------------|-----2-----------3---3-----------|
Ab|---------------------------------|-0-0---0-----------0---0---------|
Eb|---------------------------------|---------------------------------|
  |                                 |                                 |
  | lie     another step is in my   | sight                           |
  |                                 |                                 |
==|======== Guitar 2 (dist.)        |                                 |
  | G5                              | A5                              |
  | 1   *   2   *   3   *   4   *   | 1   *   2   *   3   *   4   *   |
eb|---------------------------------|---------------------------------|
Bb|(0)------------------------------|---------------------------------|
Gb|-4-----------4-4-----------------|-2-----------2-2-----------------|
Db|-5-----------5-5-----------------|-2-----------2-2-----------------|
Ab|-5-----------5-5-----------------|-0-----------0-0-----------------|
Eb|-3-----------3-3-----------------|---------------------------------|
    ^ P.Mute    ^ ^ P.Mute            ^ P. Mute   ^ ^ P.Mute


==|======== Guitar 1 (clean, open)
  |
  | 1   *   2   *   3   *   4   *   | 1   *   2   *   3   *   4   *   |
eb|---------7-----------------------|---------------------------------|
Bb|-----8-------------------8-------|---------------------------------|
Gb|-7-------------7-7---7-------7---|-------------TACET---------------|
Db|---------------------------------|---------------------------------|
Ab|---------------------------------|---------------------------------|
Eb|---------------------------------|---------------------------------|
  |                                 |                                 |
  |                                 |                                 |
  |         another step Ill see the  light!        I wait ed   for  (you)
  |                                 |                                 |
==|======== Guitar 2 (dist.)        |                                 |
  | A5              F5              | D5              .               |
  | 1   *   2   *   3   *   4   *   | 1   *   2   *   3   *   4   *   |
eb|---------------------------------|---------------------------------|
Bb|(0)------------------------------|---------------------------------|
Gb|-4-----------4-4-----------------|-7-7-7-7-7-7-7-7-7---------------|
Db|-5-----------5-5-----------------|-7-7-7-7-7-7-7-7-7---------------|
Ab|-5-----------5-5-----------------|-5-5-5-5-5-5-5-5-5---------------|
Eb|-3-----------3-3-----------------|---------------------------------|
    ^ P.Mute    ^ ^ P.Mute            |---Palm Mute-| * < Volume Swell


CHORUS: Time: 4/4
Performance Note: Guitar 1 must not overpower Guitar 2's volume, as G1 is harmony!


==|======== Guitar 1 (dist.)
  |F5                                              G5
  | 1     *     2     *     3     *     4    *    | 1     *     2     *     3     *     4    *    |
eb|-----------------------------------------------|-----------------------------------------------|
Bb|-----------------------------------------------|-----------------------------------------------|
Gb|10-10-10-10-10-10-10-10-10-10-10-10-10-10-10-10|12-12-12-12-12-12-12-12-12-12-12-12-12-12-12-12|
Db|10-10-10-10-10-10-10-10-10-10-10-10-10-10-10-10|12-12-12-12-12-12-12-12-12-12-12-12-12-12-12-12|
Ab|-8--8--8--8--8--8--8--8--8--8--8--8--8--8--8--8|10-10-10-10-10-10-10-10-10-10-10-10-10-10-10-10|
Eb|-----------------------------------------------|-----------------------------------------------|
  |                                               |                                               |
(yoooooou)                I wait-ed     so     looooong                      Thought ud be   baaaaack
  |                                               |                                               |
==|======== Guitar 2 (dist.)                      |                                               |
  |F5                                             |G5                                             |
  | 1     *     2     *     3     *     4    *    | 1     *     2     *     3     *     4    *    |
eb|-----------------------------------------------|-----------------------------------------------|
Bb|-----------------------------------------------|-----------------------------------------------|
Gb|-2--2--2--2--2--2--2--2--2--2--2--2--2--2--2--2|-4--4--4--4--4--4--4--4--4--4--4--4--4--4--4--4|
Db|-3--3--3--3--3--3--3--3--3--3--3--3--3--3--3--3|-5--5--5--5--5--5--5--5--5--5--5--5--5--5--5--5|
Ab|-3--3--3--3--3--3--3--3--3--3--3--3--3--3--3--3|-5--5--5--5--5--5--5--5--5--5--5--5--5--5--5--5|
Eb|-1--1--1--1--1--1--1--1--1--1--1--1--1--1--1--1|-3--3--3--3--3--3--3--3--3--3--3--3--3--3--3--3|



==|======== Guitar 1 (dist.)
  |A5                                              C5
  | 1     *     2     *     3     *     4    *    | 1     *     2     *     3     *     4    *    |
eb|-----------------------------------------------|-----------------------------------------------|
Bb|-----------------------------------------------|-----------------------------------------------|
Gb|-2--2--2--2--2--2--2--2--2--2--2--2--2--2--2--2|-5--5--5--5--5--5--5--5--5--5--5--5--5--5--5--5|
Db|-2--2--2--2--2--2--2--2--2--2--2--2--2--2--2--2|-5--5--5--5--5--5--5--5--5--5--5--5--5--5--5--5|
Ab|-0--0--0--0--0--0--0--0--0--0--0--0--0--0--0--0|-3--3--3--3--3--3--3--3--3--3--3--3--3--3--3--3|
Eb|-----------------------------------------------|-----------------------------------------------|
  |                                               |                                               |
(baaaack)              cant take       any     moooooore                   I wait ed   for   yooooou
  |                                               |                                               |
==|======== Guitar 2 (dist.)                      |                                               |
  |A5                                             |C5                                             |
  | 1     *     2     *     3     *     4    *    | 1     *     2     *     3     *     4    *    |
eb|-----------------------------------------------|-----------------------------------------------|
Bb|-----------------------------------------------|-----------------------------------------------|
Gb|-5--5--5--5--5--5--5--5--5--5--5--5--5--5--5--5|-5--5--5--5--5--5--5--5--5--5--5--5--5--5--5--5|
Db|-7--7--7--7--7--7--7--7--7--7--7--7--7--7--7--7|-5--5--5--5--5--5--5--5--5--5--5--5--5--5--5--5|
Ab|-7--7--7--7--7--7--7--7--7--7--7--7--7--7--7--7|-3--3--3--3--3--3--3--3--3--3--3--3--3--3--3--3|
Eb|-5--5--5--5--5--5--5--5--5--5--5--5--5--5--5--5|-----------------------------------------------|



==|======== Guitar 1 (dist.)
  |F5                                              G5
  | 1     *     2     *     3     *     4    *    | 1     *     2     *     3     *     4    *    |
eb|-----------------------------------------------|-----------------------------------------------|
Bb|-----------------------------------------------|-----------------------------------------------|
Gb|10-10-10-10-10-10-10-10-10-10-10-10-10-10-10-10|12-12-12-12-12-12-12-12-12-12-12-12-12-12-12-12|
Db|10-10-10-10-10-10-10-10-10-10-10-10-10-10-10-10|12-12-12-12-12-12-12-12-12-12-12-12-12-12-12-12|
Ab|-8--8--8--8--8--8--8--8--8--8--8--8--8--8--8--8|10-10-10-10-10-10-10-10-10-10-10-10-10-10-10-10|
Eb|-----------------------------------------------|-----------------------------------------------|
  |                                               |                                               |
(yooooou)                 I wait ed     so     looooong                I'm  NOT      co-ming home!|
  |                                               |                                               |
==|======== Guitar 2 (dist.)                      |                                               |
  |F5                                             |G5                                             |
  | 1     *     2     *     3     *     4    *    | 1     *     2     *     3     *     4    *    |
eb|-----------------------------------------------|-----------------------------------------------|
Bb|-----------------------------------------------|-----------------------------------------------|
Gb|-2--2--2--2--2--2--2--2--2--2--2--2--2--2--2--2|-4--4--4--4--4--4--4--4--4--4--4--4--4--4--4--4|
Db|-3--3--3--3--3--3--3--3--3--3--3--3--3--3--3--3|-5--5--5--5--5--5--5--5--5--5--5--5--5--5--5--5|
Ab|-3--3--3--3--3--3--3--3--3--3--3--3--3--3--3--3|-5--5--5--5--5--5--5--5--5--5--5--5--5--5--5--5|
Eb|-1--1--1--1--1--1--1--1--1--1--1--1--1--1--1--1|-3--3--3--3--3--3--3--3--3--3--3--3--3--3--3--3|



***NOTE: TIME CHANGE: 3/4

==|======== Guitar 1 (dist.)
  |A5                 F5
  | 1     2     3     2     2     3     |
eb|-------------------------------------|
Bb|-------------------------------------|
Gb|-2--2----2----2---10----10-10-10-----|
Db|-2--2----2----2---10----10-10-10-----|
Ab|-0--0----0----0----8-----8--8--8-----|
Eb|-------------------------------------|
  |                         |-P.M-|     |
  |                                     |
  |                                     |
==|======== Guitar 2 (dist.)            |
  |A5                 F5                |
  | 1     2     3     2     2     3     |
eb|-------------------------------------|
Bb|-------------------------------------|
Gb|-5--5----5----5----2-----2-----2-----|
Db|-7--7----7----7----3-----3-----3-----|
Ab|-7--7----7----7----3-----3-----3-----|
Eb|-5--5----5----5----1-----1-----1-----|
  |                         |-P.M-|


BRIDGE 1: Time: 4/4

==|======== Guitar 1 (dist.)
   A5               F5               A5               F5
  | 1   *   2   *   3   *   4   *   | 1   *   2   *   3   *   4   *   |
eb|---------------------------------|---------------------------------|
Bb|---------------------------------|---------------------------------|
Gb|---------4~~-------------5~~-----|---------4~~-------------5~~-----|
Db|-----2---------2-----3---------3-|-----2---------2-----3-----------|
Ab|-0-0---0-----0---0-0---0-----0---|-0-0---0-----0---0-0---0---------|
Eb|---------------------------------|---------------------------------|
  |                                 |                                 |
  |                                 |                                 |
  |                                 |                                 |
==|======== Guitar 2 (dist.)        |                                 |
  |                                 |                                 |
  | 1   *   2   *   3   *   4   *   | 1   *   2   *   3   *   4   *   |
eb|---------------------------------|---------------------------------|
Bb|---------------------------------|---------------------------------|
Gb|-2-2---------2-2-----------------|-2-2---------2-2-----------------|
Db|-2-2---------2-2-----------------|-2-2---------2-2-----------------|
Ab|-0-0---------0-0-----------------|-0-0---------0-0-----------------|
Eb|---------------------------------|---------------------------------|



VERSE 2:

==|======== Guitar 1 (clean)
   A5               F5               A5               F5
  | 1   *   2   *   3   *   4   *   | 1   *   2   *   3   *   4   *   |
eb|---------7---------------8-------|---------7---------------8--(8)--|
Bb|----10------10------10------10---|----10------10------10-----------|
Gb|-9---------------9---------------|-9---------------9---------------|
Db|---------------------------------|---------------------------------|
Ab|---------------------------------|---------------------------------|
Eb|---------------------------------|---------------------------------|
  |                                 |                                 |
  | Trust      your  words          |     Tell me  ur empty  cause you|
  |                                 |                                 |
==|======== Guitar 2 (dist.)        |                                 |
  |                                 |                                 |
  | 1   *   2   *   3   *   4   *   | 1   *   2   *   3   *   4   *   |
eb|---------------------------------|---------------------------------|
Bb|---------------------------------|---------------------------------|
Gb|-2-2-x-x-x-x-2-2-x-x-x-x-x-x-x-x-|-2-2-x-x-x-x-2-2-x-x-x-x-x-x-x-x-|
Db|-2-2-x-x-x-x-2-2-x-x-x-x-x-x-x-x-|-2-2-x-x-x-x-2-2-x-x-x-x-x-x-x-x-|
Ab|-0-0---------0-0-----------------|-0-0---------0-0-----------------|
Eb|---------------------------------|---------------------------------|



==|======== Guitar 1 (clean)
   A5               F5               A5               F5
  | 1   *   2   *   3   *   4   *   | 1   *   2   *   3   *   4   *   |
eb|---------7---------------8-------|---------7---------------8--(8)--|
Bb|----10------10------10------10---|----10------10------10-----------|
Gb|-9---------------9---------------|-9---------------9---------------|
Db|---------------------------------|---------------------------------|
Ab|---------------------------------|---------------------------------|
Eb|---------------------------------|---------------------------------|
  |                                 |                                 |
  | know         it hurts           |    her eyes wer spilling I  was |
  |                                 |                                 |
==|======== Guitar 2 (dist.)        |                                 |
  |                                 |                                 |
  | 1   *   2   *   3   *   4   *   | 1   *   2   *   3   *   4   *   |
eb|---------------------------------|---------------------------------|
Bb|---------------------------------|---------------------------------|
Gb|-2-2-x-x-x-x-2-2-x-x-x-x-x-x-x-x-|-2-2-x-x-x-x-2-2-x-x-x-x-x-x-x-x-|
Db|-2-2-x-x-x-x-2-2-x-x-x-x-x-x-x-x-|-2-2-x-x-x-x-2-2-x-x-x-x-x-x-x-x-|
Ab|-0-0---------0-0-----------------|-0-0---------0-0-----------------|
Eb|---------------------------------|---------------------------------|



==|======== Guitar 1 (clean)
  |
  | 1   *   2   *   3   *   4   *   | 1   *   2   *   3   *   4   *   |
eb|---------7---------------8--(8)--|---------7---------------8--(8)--|
Bb|-----8-------8------10-----------|-----8-------8------10-----------|
Gb|-7---------------9---------------|-7---------------9---------------|
Db|---------------------------------|---------------------------------|
Ab|---------------------------------|---------------------------------|
Eb|---------------------------------|---------------------------------|
  |                                 |                                 |
  |                                 |                                 |
  | real    have  I not held back the fight?                          |
  |                                 |                                 |
==|======== Guitar 2 (dist.)        |                                 |
  | G5                              | A5                              |
  | 1   *   2   *   3   *   4   *   | 1   *   2   *   3   *   4   *   |
eb|---------------------------------|---------------------------------|
Bb|(0)------------------------------|---------------------------------|
Gb|-4-----------4-4-----------------|-2-----------2-2-----------------|
Db|-5-----------5-5-----------------|-2-----------2-2-----------------|
Ab|-5-----------5-5-----------------|-0-----------0-0-----------------|
Eb|-3-----------3-3-----------------|---------------------------------|
    ^ P.Mute    ^ ^ P.Mute            ^ P. Mute   ^ ^ P.Mute



==|======== Guitar 1 (clean)
  |
  | 1   *   2   *   3   *   4   *   | 1   *   2   *   3   *   4   *   |
eb|---------7---------------8--(8)--|---------8-----------------------|
Bb|-----8-------8------10-----------|----10---------------------------|
Gb|-7---------------9---------------|-7-----------7---7---------------|
Db|---------------------------------|---------------------------------|
Ab|---------------------------------|---------------------------------|
Eb|---------------------------------|---------------------------------|
  |                                 |                                 |
  |                                 |                                 |
  |      my  bod y  raceing out  to   night!        I wait ed   for  (you)
  |                                 |                                 |
==|======== Guitar 2 (dist.)        |                                 |
  | A5              F5              | D5              .               |
  | 1   *   2   *   3   *   4   *   | 1   *   2   *   3   *   4   *   |
eb|---------------------------------|---------------------------------|
Bb|(0)------------------------------|---------------------------------|
Gb|-4-----------4-4-----------------|-7-7-7-7-7-7-7-7-7---------------|
Db|-5-----------5-5-----5-5-5-5-5-5-|-7-7-7-7-7-7-7-7-7---------------|
Ab|-5-----------5-5-----5-5-5-5-5-5-|-5-5-5-5-5-5-5-5-5---------------|
Eb|-3-----------3-3-----3-3-3-3-3-3-|---------------------------------|
    ^ P.Mute    ^ ^     |-Palm Mute-|-Palm Mute-|       < Volume Swell


CHORUS 2: Time: 4/4

==|======== Guitar 1
  |F5                                              G5
  | 1     *     2     *     3     *     4    *    | 1     *     2     *     3     *     4    *    |
eb|-----------------------------------------------|-----------------------------------------------|
Bb|-----------------------------------------------|-----------------------------------------------|
Gb|10-10-10-10-10-10-10-10-10-10-10-10-10-10-10-10|12-12-12-12-12-12-12-12-12-12-12-12-12-12-12-12|
Db|10-10-10-10-10-10-10-10-10-10-10-10-10-10-10-10|12-12-12-12-12-12-12-12-12-12-12-12-12-12-12-12|
Ab|-8--8--8--8--8--8--8--8--8--8--8--8--8--8--8--8|10-10-10-10-10-10-10-10-10-10-10-10-10-10-10-10|
Eb|-----------------------------------------------|-----------------------------------------------|
  |                                               |                                               |
 yooooooou                I wait ed     so     looooong                      Thougt ud  be   baaaaack
  |                                               |                                               |
==|======== Guitar 2                              |                                               |
  |F5                                             |G5                                             |
  | 1     *     2     *     3     *     4    *    | 1     *     2     *     3     *     4    *    |
eb|-----------------------------------------------|-----------------------------------------------|
Bb|-----------------------------------------------|-----------------------------------------------|
Gb|-2--2--2--2--2--2--2--2--2--2--2--2--2--2--2--2|-4--4--4--4--4--4--4--4--4--4--4--4--4--4--4--4|
Db|-3--3--3--3--3--3--3--3--3--3--3--3--3--3--3--3|-5--5--5--5--5--5--5--5--5--5--5--5--5--5--5--5|
Ab|-3--3--3--3--3--3--3--3--3--3--3--3--3--3--3--3|-5--5--5--5--5--5--5--5--5--5--5--5--5--5--5--5|
Eb|-1--1--1--1--1--1--1--1--1--1--1--1--1--1--1--1|-3--3--3--3--3--3--3--3--3--3--3--3--3--3--3--3|




==|======== Guitar 1
  |A5                                              C5
  | 1     *     2     *     3     *     4    *    | 1     *     2     *     3     *     4    *    |
eb|-----------------------------------------------|-----------------------------------------------|
Bb|-----------------------------------------------|-----------------------------------------------|
Gb|-2--2--2--2--2--2--2--2--2--2--2--2--2--2--2--2|-5--5--5--5--5--5--5--5--5--5--5--5--5--5--5--5|
Db|-2--2--2--2--2--2--2--2--2--2--2--2--2--2--2--2|-5--5--5--5--5--5--5--5--5--5--5--5--5--5--5--5|
Ab|-0--0--0--0--0--0--0--0--0--0--0--0--0--0--0--0|-3--3--3--3--3--3--3--3--3--3--3--3--3--3--3--3|
Eb|-----------------------------------------------|-----------------------------------------------|
  |                                               |                                               |
baaaaaack              cant take       any     moooooore                   I wait ed   for  yooooou
  |                                               |                                               |
==|======== Guitar 2                              |                                               |
  |A5                                             |C5                                             |
  | 1     *     2     *     3     *     4    *    | 1     *     2     *     3     *     4    *    |
eb|-----------------------------------------------|-----------------------------------------------|
Bb|-----------------------------------------------|-----------------------------------------------|
Gb|-5--5--5--5--5--5--5--5--5--5--5--5--5--5--5--5|-5--5--5--5--5--5--5--5--5--5--5--5--5--5--5--5|
Db|-7--7--7--7--7--7--7--7--7--7--7--7--7--7--7--7|-5--5--5--5--5--5--5--5--5--5--5--5--5--5--5--5|
Ab|-7--7--7--7--7--7--7--7--7--7--7--7--7--7--7--7|-3--3--3--3--3--3--3--3--3--3--3--3--3--3--3--3|
Eb|-5--5--5--5--5--5--5--5--5--5--5--5--5--5--5--5|-----------------------------------------------|




==|======== Guitar 1
  |F5                                              G5
  | 1     *     2     *     3     *     4    *    | 1     *     2     *     3     *     4    *    |
eb|-----------------------------------------------|-----------------------------------------------|
Bb|-----------------------------------------------|-----------------------------------------------|
Gb|10-10-10-10-10-10-10-10-10-10-10-10-10-10-10-10|12-12-12-12-12-12-12-12-12-12-12-12-12-12-12-12|
Db|10-10-10-10-10-10-10-10-10-10-10-10-10-10-10-10|12-12-12-12-12-12-12-12-12-12-12-12-12-12-12-12|
Ab|-8--8--8--8--8--8--8--8--8--8--8--8--8--8--8--8|10-10-10-10-10-10-10-10-10-10-10-10-10-10-10-10|
Eb|-----------------------------------------------|-----------------------------------------------|
  |                                               |                                               |
(yoooooou)                I wait ed     so     looooong                     NOT      co-ming hoooooome
  |                                               |                                               |
==|======== Guitar 2                              |                                               |
  |F5                                             |G5                                             |
  | 1     *     2     *     3     *     4    *    | 1     *     2     *     3     *     4    *    |
eb|-----------------------------------------------|-----------------------------------------------|
Bb|-----------------------------------------------|-----------------------------------------------|
Gb|-2--2--2--2--2--2--2--2--2--2--2--2--2--2--2--2|-4--4--4--4--4--4--4--4--4--4--4--4--4--4--4--4|
Db|-3--3--3--3--3--3--3--3--3--3--3--3--3--3--3--3|-5--5--5--5--5--5--5--5--5--5--5--5--5--5--5--5|
Ab|-3--3--3--3--3--3--3--3--3--3--3--3--3--3--3--3|-5--5--5--5--5--5--5--5--5--5--5--5--5--5--5--5|
Eb|-1--1--1--1--1--1--1--1--1--1--1--1--1--1--1--1|-3--3--3--3--3--3--3--3--3--3--3--3--3--3--3--3|



==|======== Guitar 1
  |A5                                              C5
  | 1     *     2     *     3     *     4    *    | 1     *     2     *     3     *     4    *    |
eb|-----------------------------------------------|-----------------------------------------------|
Bb|-----------------------------------------------|-----------------------------------------------|
Gb|-2--2--2--2--2--2--2--2--2--2--2--2--2--2--2--2|-5--5--5--5--5--5--5--5--5--5--5--5--5--5--5--5|
Db|-2--2--2--2--2--2--2--2--2--2--2--2--2--2--2--2|-5--5--5--5--5--5--5--5--5--5--5--5--5--5--5--5|
Ab|-0--0--0--0--0--0--0--0--0--0--0--0--0--0--0--0|-3--3--3--3--3--3--3--3--3--3--3--3--3--3--3--3|
Eb|-----------------------------------------------|-----------------------------------------------|
  |                                               |                                               |
(hoooome)                   been  all a looooooooooooooone                                        |
  |                                               |                                               |
==|======== Guitar 2                              |                                               |
  |A5                                             |C5                                             |
  | 1     *     2     *     3     *     4    *    | 1     *     2     *     3     *     4    *    |
eb|-----------------------------------------------|-----------------------------------------------|
Bb|-----------------------------------------------|-----------------------------------------------|
Gb|-5--5--5--5--5--5--5--5--5--5--5--5--5--5--5--5|-5--5--5--5--5--5--5--5--5--5--5--5--5--5--5--5|
Db|-7--7--7--7--7--7--7--7--7--7--7--7--7--7--7--7|-5--5--5--5--5--5--5--5--5--5--5--5--5--5--5--5|
Ab|-7--7--7--7--7--7--7--7--7--7--7--7--7--7--7--7|-3--3--3--3--3--3--3--3--3--3--3--3--3--3--3--3|
Eb|-5--5--5--5--5--5--5--5--5--5--5--5--5--5--5--5|-----------------------------------------------|



BRIDGE 2: Time: 3/4

==|======== Guitar 1
  |A5                 F5                |A5                 F5          G5
  | 1     2     3     2     2     3     | 1     2     3     2     2     3     |
eb|-------------------------------------|-------------------------------------|
Bb|-------------------------------------|-------------------------------------|
Gb|-2--2----2----2---10-10-10-10-10-10--|-2--2----2----2----10-10-10--/-12----|
Db|-2--2----2----2---10-10-10-10-10-10--|-2--2----2----2----10-10-10--/-12----|
Ab|-0--0----0----0----8--8--8--8--8--8--|-0--0----0----0-----8--8--8--/-10----|
Eb|-------------------------------------|-------------------------------------|
  |                                     |                                     |
  |                                     |                                     |
  |                                     |                                     |
==|======== Guitar 2                    |                                     |
  |A5                 F5                |A5                 F5          G5    |
  | 1     2     3     2     2     3     | 1     2     3     2     2     3     |
eb|-------------------------------------|-------------------------------------|
Bb|-------------------------------------|-------------------------------------|
Gb|-5--5----5----5----2-----2-----2-----|-5--5----5----5----2-----2-----4-----|
Db|-7--7----7----7----3-----3-----3-----|-7--7----7----7----3-----3-----5-----|
Ab|-7--7----7----7----3-----3-----3-----|-7--7----7----7----3-----3-----5-----|
Eb|-5--5----5----5----1-----1-----1-----|-5--5----5----5----1-----1-----3-----|



==|======== Guitar 1
  |A5                 F5                |D5                 E5                
  | 1     2     3     2     2     3     | 1     2     3     2     2     3     |
eb|-------------------------------------|-------------------------------------|
Bb|-------------------------------------|-------------------------------------|
Gb|-2--2----2----2---10-10-10-10-10-10--|-7--7--7--7--7--7--7-/9--9--9--9--9--|
Db|-2--2----2----2---10-10-10-10-10-10--|-7--7--7--7--7--7--7-/9--9--9--9--9--|
Ab|-0--0----0----0----8--8--8--8--8--8--|-5--5--5--5--5--5--5-/7--7--7--7--7--|
Eb|-------------------------------------|-------------------------------------|
  |                                     |                                     |
  |                                     |                                     |
  |                                     |                                     |
==|======== Guitar 2                    |                                     |
  |A5                 F5                |D5                 E5                |
  | 1     2     3     2     2     3     | 1     2     3     2     2     3     |
eb|-------------------------------------|-------------------------------------|
Bb|-------------------------------------|-------------------------------------|
Gb|-5--5----5----5----2-----2-----2-----|-7--7--7--7--7--7--------------------|
Db|-7--7----7----7----3-----3-----3-----|-7--7--7--7--7--7--2--2--2--2--2-----|
Ab|-7--7----7----7----3-----3-----3-----|-5--5--5--5--5--5--2--2--2--2--2-----|
Eb|-5--5----5----5----1-----1-----1-----|-------------------0--0--0--0--0-----|


VERSE 3: Time 3/4

==|======== Guitar 1
  |A5                 F5                |A5                 F5          G5
  | 1     2     3     2     2     3     | 1     2     3     2     2     3     |
eb|-------------------------------------|-------------------------------------|
Bb|-------------------------------------|-------------------------------------|
Gb|-2--2----2----2---10-10-10-10-10-10--|-2--2----2----2----10-10-10--/-12----|
Db|-2--2----2----2---10-10-10-10-10-10--|-2--2----2----2----10-10-10--/-12----|
Ab|-0--0----0----0----8--8--8--8--8--8--|-0--0----0----0-----8--8--8--/-10----|
Eb|-------------------------------------|-------------------------------------|
  |                                     |                                     |
  | Take    it        Slow        you   | tell        me    swee........ty    |
  |                                     |                                     |
==|======== Guitar 2                    |                                     |
  |A5                 F5                |A5                 F5          G5    |
  | 1     2     3     2     2     3     | 1     2     3     2     2     3     |
eb|-------------------------------------|-------------------------------------|
Bb|-------------------------------------|-------------------------------------|
Gb|-5--5----5----5----2-----2-----2-----|-5--5----5----5----2-----2-----4-----|
Db|-7--7----7----7----3-----3-----3-----|-7--7----7----7----3-----3-----5-----|
Ab|-7--7----7----7----3-----3-----3-----|-7--7----7----7----3-----3-----5-----|
Eb|-5--5----5----5----1-----1-----1-----|-5--5----5----5----1-----1-----3-----|



==|======== Guitar 1
  |A5                 F5                |D5                 E5
  | 1     2     3     2     2     3     | 1     2     3     2     2     3     |
eb|-------------------------------------|-------------------------------------|
Bb|-------------------------------------|-------------------------------------|
Gb|-2--2----2----2---10-10-10-10-10-10--|-7--7--7--7--7--7--7-/9--9--9--9--9--|
Db|-2--2----2----2---10-10-10-10-10-10--|-7--7--7--7--7--7--7-/9--9--9--9--9--|
Ab|-0--0----0----0----8--8--8--8--8--8--|-5--5--5--5--5--5--5-/7--7--7--7--7--|
Eb|-------------------------------------|-------------------------------------|
  |                                     |                                     |
  | Rest        here   with       me    | Doooooooooon't    Moooooove         |
  |                                     |                                     |
==|======== Guitar 2                    |                                     |
  |A5                 F5                |D5                 E5                |
  | 1     2     3     2     2     3     | 1     2     3     2     2     3     |
eb|-------------------------------------|-------------------------------------|
Bb|-------------------------------------|-------------------------------------|
Gb|-5--5----5----5----2-----2-----2-----|-7--7--7--7--7--7--------------------|
Db|-7--7----7----7----3-----3-----3-----|-7--7--7--7--7--7--2--2--2--2--2-----|
Ab|-7--7----7----7----3-----3-----3-----|-5--5--5--5--5--5--2--2--2--2--2-----|
Eb|-5--5----5----5----1-----1-----1-----|-------------------0--0--0--0--0-----|




==|======== Guitar 1
  |A5                 F5                |A5                 F5          G5
  | 1     2     3     2     2     3     | 1     2     3     2     2     3     |
eb|-------------------------------------|-------------------------------------|
Bb|-------------------------------------|-------------------------------------|
Gb|-2--2----2----2---10-10-10-10-10-10--|-2--2----2----2----10-10-10--/-12----|
Db|-2--2----2----2---10-10-10-10-10-10--|-2--2----2----2----10-10-10--/-12----|
Ab|-0--0----0----0----8--8--8--8--8--8--|-0--0----0----0-----8--8--8--/-10----|
Eb|-------------------------------------|-------------------------------------|
  |                                     |                                     |
  | I'll        fight Back        you   | won't        ex   pect        it    |
  |                                     |                                     |
==|======== Guitar 2                    |                                     |
  |A5                 F5                |A5                 F5          G5    |
  | 1     2     3     2     2     3     | 1     2     3     2     2     3     |
eb|-------------------------------------|-------------------------------------|
Bb|-------------------------------------|-------------------------------------|
Gb|-5--5----5----5----2-----2-----2-----|-5--5----5----5----2-----2-----4-----|
Db|-7--7----7----7----3-----3-----3-----|-7--7----7----7----3-----3-----5-----|
Ab|-7--7----7----7----3-----3-----3-----|-7--7----7----7----3-----3-----5-----|
Eb|-5--5----5----5----1-----1-----1-----|-5--5----5----5----1-----1-----3-----|



==|======== Guitar 1
  |A5                 F5                |D5                 E5
  | 1     2     3     2     2     3     | 1     2     3     2     2     3     |
eb|-------------------------------------|-------------------------------------|
Bb|-------------------------------------|-------------------------------------|
Gb|-2--2----2----2---10-10-10-10-10-10--|-7--7--7--7--7--7--7-/9--9--9--9--9--|
Db|-2--2----2----2---10-10-10-10-10-10--|-7--7--7--7--7--7--7-/9--9--9--9--9--|
Ab|-0--0----0----0----8--8--8--8--8--8--|-5--5--5--5--5--5--5-/7--7--7--7--7--|
Eb|-------------------------------------|-------------------------------------|
  |                                     |                                     |
  |                                     |                                     |
  | Now         I     hve         to    | Leaveeeeeeeeeeeee you~~~~~~~~~~~~~~ |
==|======== Guitar 2                    |                                     |
  |A5                 F5                |D5                 E5                |
  | 1     2     3     2     2     3     | 1     2     3     2     2     3     |
eb|-------------------------------------|-------------------------------------|
Bb|-------------------------------------|-------------------------------------|
Gb|-5--5----5----5----2-----2-----2-----|-7--7--7--7--7--7--------------------|
Db|-7--7----7----7----3-----3-----3-----|-7--7--7--7--7--7--2--2--2--2--2-----|
Ab|-7--7----7----7----3-----3-----3-----|-5--5--5--5--5--5--2--2--2--2--2-----|
Eb|-5--5----5----5----1-----1-----1-----|-------------------0--0--0--0--0-----|




==|======== Guitar 1
  | E5                               F5     
  | 1     2     3     2     2     3     |
eb|-------------------------------------|
Bb|-------------------------------------|
Gb|-9--9--9--9--9--9--9--9--9--9--9-/10-|
Db|-9--9--9--9--9--9--9--9--9--9--9-/10-|
Ab|-7--7--7--7--7--7--7--7--7--7--7-/8--|
Eb|-------------------------------------|
  |                                     |
(you)~~~~~~~~~~~~~~~~~~~~~~~~~~~~~~     |
  |     (I   waited    for    you)      |
==|======== Guitar 2                    |
  | E5                               F5 |
  | 1     2     3     2     2     3     |
eb|-------------------------------------|
Bb|-------------------------------------|
Gb|-------------------------------------|
Db|-2--2--2--2--2--2--2--2--2--2--2--3--|
Ab|-2--2--2--2--2--2--2--2--2--2--2--3--|
Eb|-0--0--0--0--0--0--0--0--0--0--0--1--|


VERSE 4: Time: 4/4

   F5                                G5
  | 1   *   2   *   3   *   4   *   | 1   *   2   *   3   *   4   *   |
eb|---------------------------------|---------------------------------|
Bb|---------------------------------|---------------------------------|
Gb|---------5-----5---------5-------|---------7-----7---------7-------|
Db|-3-3-3-3---3-3---3-3-3-3---3-3-3-|-5-5-5-5---5-5---5-5-5-5---5-5-5-|
Ab|---------------------------------|---------------------------------|
Eb|---------------------------------|---------------------------------|

                                      I waited so long for you...
                  (I waited  so looooong)            (Thought ud be baaaack)
   A5                                C5
  | 1   *   2   *   3   *   4   *   | 1   *   2   *   3   *   4   *   |
eb|---------------------------------|---------------------------------|
Bb|---------------------------------|---------------------------------|
Gb|---------9-----9---------9-------|---------------------------------|
Db|-7-7-7-7---7-7---7-7-7-7---7-7-7-|---------5-----5---------5-----5-|
Ab|---------------------------------|-3-3-3-3---3-3---3-3-3-3---3-3---|
Eb|---------------------------------|---------------------------------|

U promised me the world when u returned  U gotta come back empty handed?
(baack)           (can't take any moooore)           (I  waited  for yooou)



==|======== Guitar 1
  |F5                                G5
  | 1   *   2   *   3   *   4   *   | 1   *   2   *   3   *   4   *   |
eb|---------------------------------|---------------------------------|
Bb|---------------------------------|---------------------------------|
Gb|---------5-----5---------5-------|---------7-----7---------7-------|
Db|-3-3-3-3---3-3---3-3-3-3---3-3-3-|-5-5-5-5---5-5---5-5-5-5---5-5-5-|
Ab|---------------------------------|---------------------------------|
Eb|---------------------------------|---------------------------------|
  |                                 |                                 |
  | You think I'll be waiting for you?  huh. you better think again  and
(yoouu)                 (I waited so loooong)         (not   comin   hoome)
==|======== Guitar 2                |                                 |
  |F5                               |G5                               |
  | 1   *   2   *   3   *   4   *   | 1   *   2   *   3   *   4   *   |
eb|---------------------------------|---------------------------------|
Bb|---------------------------------|---------------------------------|
Gb|---------------------------------|---------------------------------|
Db|-3-3-3-3-3-3-3-3-3-3-3-3-3-3-3-3-|-5-5-5-5-5-5-5-5-5-5-5-5-5-5-5-5-|
Ab|-3-3-3-3-3-3-3-3-3-3-3-3-3-3-3-3-|-5-5-5-5-5-5-5-5-5-5-5-5-5-5-5-5-|
Eb|-1-1-1-1-1-1-1-1-1-1-1-1-1-1-1-1-|-3-3-3-3-3-3-3-3-3-3-3-3-3-3-3-3-|
    |---------palm mute-----------|   |---------palm mute-----------|


==|======== Guitar 1
  |A5                                C5
  | 1   *   2   *   3   *   4   *   | 1   *   2   *   3   *   4   *   |
eb|---------------------------------|---------------------------------|
Bb|---------------------------------|---------------------------------|
Gb|---------9-----9---------9-------|-5-5-5-5-5-5-5-5-5---------------|
Db|-7-7-7-7---7-7---7-7-7-7---7-7-7-|-5-5-5-5-5-5-5-5-5---------------|
Ab|---------------------------------|-3-3-3-3-3-3-3-3-3---------------|
Eb|---------------------------------|---------------------------------|
  |                                 |                                 |
  | you better wake up.   cause ur wrong            I wait ed   for  (you)
  |                 (been all a loooone)                              |
==|======== Guitar 2                |                                 |
  |A5                               |C5                               |
  | 1   *   2   *   3   *   4   *   | 1   *   2   *   3   *   4   *   |
eb|---------------------------------|---------------------------------|
Bb|---------------------------------|---------------------------------|
Gb|---------------------------------|-5-5-5-5-5-5-5-5-5---------------|
Db|-7-7-7-7-7-7-7-7-7-7-7-7-7-7-7-7-|-5-5-5-5-5-5-5-5-5---------------|
Ab|-7-7-7-7-7-7-7-7-7-7-7-7-7-7-7-7-|-3-3-3-3-3-3-3-3-3---------------|
Eb|-5-5-5-5-5-5-5-5-5-5-5-5-5-5-5-5-|---------------------------------|
    |---------palm mute-------------|-palm mute-|


CHORUS 3: Time: 4/4

==|======== Guitar 1
  |F5                                              G5
  | 1     *     2     *     3     *     4    *    | 1     *     2     *     3     *     4    *    |
eb|-----------------------------------------------|-----------------------------------------------|
Bb|-----------------------------------------------|-----------------------------------------------|
Gb|10-10-10-10-10-10-10-10-10-10-10-10-10-10-10-10|12-12-12-12-12-12-12-12-12-12-12-12-12-12-12-12|
Db|10-10-10-10-10-10-10-10-10-10-10-10-10-10-10-10|12-12-12-12-12-12-12-12-12-12-12-12-12-12-12-12|
Ab|-8--8--8--8--8--8--8--8--8--8--8--8--8--8--8--8|10-10-10-10-10-10-10-10-10-10-10-10-10-10-10-10|
Eb|-----------------------------------------------|-----------------------------------------------|
  |                                               |                                               |
 yooooooou             I wait ed     so   looooong                      Thougt ud  be baaaaaaack
  |                                               |                                               |
==|======== Guitar 2                              |                                               |
  |F5                                             |G5                                             |
  | 1     *     2     *     3     *     4    *    | 1     *     2     *     3     *     4    *    |
eb|-----------------------------------------------|-----------------------------------------------|
Bb|-----------------------------------------------|-----------------------------------------------|
Gb|-2--2--2--2--2--2--2--2--2--2--2--2--2--2--2--2|-4--4--4--4--4--4--4--4--4--4--4--4--4--4--4--4|
Db|-3--3--3--3--3--3--3--3--3--3--3--3--3--3--3--3|-5--5--5--5--5--5--5--5--5--5--5--5--5--5--5--5|
Ab|-3--3--3--3--3--3--3--3--3--3--3--3--3--3--3--3|-5--5--5--5--5--5--5--5--5--5--5--5--5--5--5--5|
Eb|-1--1--1--1--1--1--1--1--1--1--1--1--1--1--1--1|-3--3--3--3--3--3--3--3--3--3--3--3--3--3--3--3|




==|======== Guitar 1
  |A5                                              C5
  | 1     *     2     *     3     *     4    *    | 1     *     2     *     3     *     4    *    |
eb|-----------------------------------------------|-----------------------------------------------|
Bb|-----------------------------------------------|-----------------------------------------------|
Gb|-2--2--2--2--2--2--2--2--2--2--2--2--2--2--2--2|-5--5--5--5--5--5--5--5--5--5--5--5--5--5--5--5|
Db|-2--2--2--2--2--2--2--2--2--2--2--2--2--2--2--2|-5--5--5--5--5--5--5--5--5--5--5--5--5--5--5--5|
Ab|-0--0--0--0--0--0--0--0--0--0--0--0--0--0--0--0|-3--3--3--3--3--3--3--3--3--3--3--3--3--3--3--3|
Eb|-----------------------------------------------|-----------------------------------------------|
  |                                               |                                               |
baaaaaack              cant take       any     moooooore                   I wait ed   for  yooooou
  |                                               |                                               |
==|======== Guitar 2                              |                                               |
  |A5                                             |C5                                             |
  | 1     *     2     *     3     *     4    *    | 1     *     2     *     3     *     4    *    |
eb|-----------------------------------------------|-----------------------------------------------|
Bb|-----------------------------------------------|-----------------------------------------------|
Gb|-5--5--5--5--5--5--5--5--5--5--5--5--5--5--5--5|-5--5--5--5--5--5--5--5--5--5--5--5--5--5--5--5|
Db|-7--7--7--7--7--7--7--7--7--7--7--7--7--7--7--7|-5--5--5--5--5--5--5--5--5--5--5--5--5--5--5--5|
Ab|-7--7--7--7--7--7--7--7--7--7--7--7--7--7--7--7|-3--3--3--3--3--3--3--3--3--3--3--3--3--3--3--3|
Eb|-5--5--5--5--5--5--5--5--5--5--5--5--5--5--5--5|-----------------------------------------------|




==|======== Guitar 1
  |F5                                              G5
  | 1     *     2     *     3     *     4    *    | 1     *     2     *     3     *     4    *    |
eb|-----------------------------------------------|-----------------------------------------------|
Bb|-----------------------------------------------|-----------------------------------------------|
Gb|10-10-10-10-10-10-10-10-10-10-10-10-10-10-10-10|12-12-12-12-12-12-12-12-12-12-12-12-12-12-12-12|
Db|10-10-10-10-10-10-10-10-10-10-10-10-10-10-10-10|12-12-12-12-12-12-12-12-12-12-12-12-12-12-12-12|
Ab|-8--8--8--8--8--8--8--8--8--8--8--8--8--8--8--8|10-10-10-10-10-10-10-10-10-10-10-10-10-10-10-10|
Eb|-----------------------------------------------|-----------------------------------------------|
  |                                               |                                               |
(yoooooou)                I wait ed     so     looooong                    NOT    co-ming hooooooome
  |                                               |                                               |
==|======== Guitar 2                              |                                               |
  |F5                                             |G5                                             |
  | 1     *     2     *     3     *     4    *    | 1     *     2     *     3     *     4    *    |
eb|-----------------------------------------------|-----------------------------------------------|
Bb|-----------------------------------------------|-----------------------------------------------|
Gb|-2--2--2--2--2--2--2--2--2--2--2--2--2--2--2--2|-4--4--4--4--4--4--4--4--4--4--4--4--4--4--4--4|
Db|-3--3--3--3--3--3--3--3--3--3--3--3--3--3--3--3|-5--5--5--5--5--5--5--5--5--5--5--5--5--5--5--5|
Ab|-3--3--3--3--3--3--3--3--3--3--3--3--3--3--3--3|-5--5--5--5--5--5--5--5--5--5--5--5--5--5--5--5|
Eb|-1--1--1--1--1--1--1--1--1--1--1--1--1--1--1--1|-3--3--3--3--3--3--3--3--3--3--3--3--3--3--3--3|



==|======== Guitar 1
  |A5                                              C5
  | 1     *     2     *     3     *     4    *    | 1     *     2     *     3     *     4    *    |
eb|-----------------------------------------------|-----------------------------------------------|
Bb|-----------------------------------------------|-----------------------------------------------|
Gb|-2--2--2--2--2--2--2--2--2--2--2--2--2--2--2--2|-5--5--5--5--5--5--5--5--5--5--5--5--5--5--5--5|
Db|-2--2--2--2--2--2--2--2--2--2--2--2--2--2--2--2|-5--5--5--5--5--5--5--5--5--5--5--5--5--5--5--5|
Ab|-0--0--0--0--0--0--0--0--0--0--0--0--0--0--0--0|-3--3--3--3--3--3--3--3--3--3--3--3--3--3--3--3|
Eb|-----------------------------------------------|-----------------------------------------------|
  |                                               |                                               |
(hoooome)                   been  all a looooooooooooooone
  |                                               |                                               |
==|======== Guitar 2                              |                                               |
  |A5                                             |C5                                             |
  | 1     *     2     *     3     *     4    *    | 1     *     2     *     3     *     4    *    |
eb|-----------------------------------------------|-----------------------------------------------|
Bb|-----------------------------------------------|-----------------------------------------------|
Gb|-5--5--5--5--5--5--5--5--5--5--5--5--5--5--5--5|-5--5--5--5--5--5--5--5--5--5--5--5--5--5--5--5|
Db|-7--7--7--7--7--7--7--7--7--7--7--7--7--7--7--7|-5--5--5--5--5--5--5--5--5--5--5--5--5--5--5--5|
Ab|-7--7--7--7--7--7--7--7--7--7--7--7--7--7--7--7|-3--3--3--3--3--3--3--3--3--3--3--3--3--3--3--3|
Eb|-5--5--5--5--5--5--5--5--5--5--5--5--5--5--5--5|-----------------------------------------------|



Chorus 5: Time: 4/4

==|======== Guitar 1
  |F5                                              G5
  | 1     *     2     *     3     *     4    *    | 1     *     2     *     3     *     4    *    |
eb|-----------------------------------------------|-----------------------------------------------|
Bb|-----------------------------------------------|-----------------------------------------------|
Gb|10----10----10--x-10-10-10----10----10--x-10-10|12----12----12--x-12-12-12----12----12--x-12-12|
Db|10----10----10--x-10-10-10----10----10--x-10-10|12----12----12--x-12-12-12----12----12--x-12-12|
Ab|-8-----8-----8-----8--8--8-----8-----8-----8--8|10----10----10----10-10-10----10----10----10-10|
Eb|-----------------------------------------------|-----------------------------------------------|
  |                                               |                                               |
  |      I've  always      waited ed   for   you  |     but    don't   ex  pect to  see  me  now  |
  |                                               |                                               |
==|======== Guitar 2                              |                                               |
  |F5                                             |G5                                             |
  | 1     *     2     *     3     *     4    *    | 1     *     2     *     3     *     4    *    |
eb|-----------------------------------------------|-----------------------------------------------|
Bb|-----------------------------------------------|-----------------------------------------------|
Gb|-2-----2-----2-----2--2--2-----2-----2-----2--2|-4-----4-----4-----4--4--4-----4-----4-----4--4|
Db|-3-----3-----3-----3--3--3-----3-----3-----3--3|-5-----5-----5-----5--5--5-----5-----5-----5--5|
Ab|-3-----3-----3-----3--3--3-----3-----3-----3--3|-5-----5-----5-----5--5--5-----5-----5-----5--5|
Eb|-1-----1-----1-----1--1--1-----1-----1-----1--1|-3-----3-----3-----3--3--3-----3-----3-----3--3|




==|======== Guitar 1
  |A5                                              C5
  | 1     *     2     *     3     *     4    *    | 1     *     2     *     3     *     4     *   |
eb|-----------------------------------------------|-----------------------------------------------|
Bb|-----------------------------------------------|-----------------------------------------------|
Gb|14----14----14--x-14-14-14----14----14-x-14-14-|-5-----5-----5---x-5--5--5-----5-----5--5--12--|
Db|14----14----14--x-14-14-14----14----14-x-14-14-|-5-----5-----5---x-5--5--5-----5-----5--5--12--|
Ab|12----12----12----12-12-12----12----12---12-12-|-3-----3-----3-----3--3--3-----3-----3--3--10--|
Eb|-----------------------------------------------|-----------------------------------------------|
  |                                               |                                               |
  |     your   lit   tle   plan   fell  through   |     tell    me    what's     wrong  with you? |   
  |                                               |                         (I wait ed  for yoouuuu)
==|======== Guitar 2                              |                                               |
  |A5                                             |C5                                             |
  | 1     *     2     *     3     *     4     *   | 1     *     2     *     3     *     4     *   |
eb|-----------------------------------------------|-----------------------------------------------|
Bb|-----------------------------------------------|-----------------------------------------------|
Gb|-5-----5-----5-----5--5--5-----5-----5-----5--5|-5-----5-----5-----5--5--5-----5-----5--5------|
Db|-7-----7-----7-----7--7--7-----7-----7-----7--7|-5-----5-----5-----5--5--5-----5-----5--5---5--|
Ab|-7-----7-----7-----7--7--7-----7-----7-----7--7|-3-----3-----3-----3--3--3-----3-----3--3---5--|
Eb|-5-----5-----5-----5--5--5-----5-----5-----5--5|--------------------------------------------3--|



==|======== Guitar 1
  |F5                                              G5
  | 1     *     2     *     3     *     4    *    | 1     *     2     *     3     *     4    *    |
eb|-----------------------------------------------|-----------------------------------------------|
Bb|-----------------------------------------------|-----------------------------------------------|
Gb|10----10----10--x-10-10-10----10----10--x-10-10|12----12----12--x-12-12-12----12----12--x-12-12|
Db|10----10----10--x-10-10-10----10----10--x-10-10|12----12----12--x-12-12-12----12----12--x-12-12|
Ab|-8-----8-----8-----8--8--8-----8-----8-----8--8|10----10----10----10-10-10----10----10----10-10|
Eb|-----------------------------------------------|-----------------------------------------------|
  |                                               |                                               |
  |      I've  always      waited ed   for   you  |     but    don't   ex  pect to  see  me  now  |
  |                        (I wait ed  so   loooooooong)                    (thought ud  be   baaaack)
==|======== Guitar 2                              |                                               |
  |F5                                             |G5                                             |
  | 1     *     2     *     3     *     4    *    | 1     *     2     *     3     *     4    *    |
eb|-----------------------------------------------|-----------------------------------------------|
Bb|-----------------------------------------------|-----------------------------------------------|
Gb|-2-----2-----2-----2--2--2-----2-----2-----2--2|-4-----4-----4-----4--4--4-----4-----4-----4--4|
Db|-3-----3-----3-----3--3--3-----3-----3-----3--3|-5-----5-----5-----5--5--5-----5-----5-----5--5|
Ab|-3-----3-----3-----3--3--3-----3-----3-----3--3|-5-----5-----5-----5--5--5-----5-----5-----5--5|
Eb|-1-----1-----1-----1--1--1-----1-----1-----1--1|-3-----3-----3-----3--3--3-----3-----3-----3--3|




==|======== Guitar 1
  |A5                                              C5
  | 1     *     2     *     3     *     4    *    | 1     *     2     *     3     *     4     *   |
eb|-----------------------------------------------|-----------------------------------------------|
Bb|-----------------------------------------------|-----------------------------------------------|
Gb|14----14----14--x-14-14-14----14----14-x-14-14-|-5-----5-----5---x-5--5--5-----5-----5--5--12--|
Db|14----14----14--x-14-14-14----14----14-x-14-14-|-5-----5-----5---x-5--5--5-----5-----5--5--12--|
Ab|12----12----12----12-12-12----12----12---12-12-|-3-----3-----3-----3--3--3-----3-----3--3--10--|
Eb|-----------------------------------------------|-----------------------------------------------|
  |                                               |                                               |
  |     your   lit   tle   plan   fell  through   |     tell    me    what's     wrong  with you~~|
  |                        (can't   take  any  moooore)                     (I wait ed   for you~~|
==|======== Guitar 2                              |                                               |
  |A5                                             |C5                                             |
  | 1     *     2     *     3     *     4     *   | 1     *     2     *     3     *     4     *   |
eb|-----------------------------------------------|-----------------------------------------------|
Bb|-----------------------------------------------|-----------------------------------------------|
Gb|-5-----5-----5-----5--5--5-----5-----5-----5--5|-5-----5-----5-----5--5--5-----5-----5--5------|
Db|-7-----7-----7-----7--7--7-----7-----7-----7--7|-5-----5-----5-----5--5--5-----5-----5--5---5--|
Ab|-7-----7-----7-----7--7--7-----7-----7-----7--7|-3-----3-----3-----3--3--3-----3-----3--3---5--|
Eb|-5-----5-----5-----5--5--5-----5-----5-----5--5|--------------------------------------------3--|

OUTRO: Time: 3/4

==|======== Guitar 1
  |A5                 F5
  | 1     2     3     2     2     3     |
eb|-------------------------------------|
Bb|-------------------------------------|
Gb|-2--2----2----2---10-----------------| (hold out)
Db|-2--2----2----2---10-----------------|
Ab|-0--0----0----0----8-----------------|
Eb|-------------------------------------|
  |                                     |
(you)~~~~~~~~~~~~~~~~~~~~~~~~~~~~~~~~~~~| (hold out)
(you)~~~~~~~~~~~~~~~~~~~~~~~~~~~~~~~~~~~| (hold out)
==|======== Guitar 2                    |
  |A5                 F5                |
  | 1     2     3     2     2     3     |
eb|-------------------------------------|
Bb|-------------------------------------|
Gb|-5--5----5----5----------------------| (hold out)
Db|-7--7----7----7----3-----------------|
Ab|-7--7----7----7----3-----------------|
Eb|-5--5----5----5----1-----------------|



==============================================================================


|(#) ghost note (finger but don't strum or pluck)
| /  slide up
| \  slide down
| ^  accent note on downstroke
| h  hammer-on
| p  pull-off
| ~  vibrato
| +  harmonic
| x  Mute note
===============================================================================
comments
We did not receive enough feedback on this tab! Please rate:
print report bad tab
1 2 3 4 5
1 comment total.
0 reply
viperplayer wrote on July 13 2012, 01:34 pm

man you went so indepth with this, why dont you put it in pro or powertab?

I want to post or [tab]
guest
You may want to rate the tab now too:
select rating
Please do not post tabs as comments. Select "correction" instead!