Oops, an error
Loading. Please wait.

Cant Stop Loving You Tab

ver2
ver2

Whole song

More versions @911Tabs.com
35,275 views 37 this week
6 commentsread comments
1 2 3 4 5
accurate
x 12
Autoscroll
+/-
esc
set tempo
stop
Contributor
WARNING: You are trying to view
                                    content from Ultimate-Guitar.com
                                    in an unauthorized application,
                                    which is prohibited.

                                    Please use an official Ultimate
                                    Guitar Tabs application for iPhone,
                                    iPad or Android to access legitimate
                                    chords, guitar, bass, and drum tabs
                                    from Ultimate-Guitar.com database.

                                    Type "ultimate guitar tabs" in Apple
                                    App Store's or Android Market's
                                    search to find the application.
CAN'T STOP LOVIN' YOU
Van Halen
                            
(From the 1995 Album BALANCE )

Words and Music by Eddie Van Halen, Alex Van Halen, Sammy Hagar, and Michael Anthony


Transcribed by Jibesh (jibesh@hotmail.com)


Benu,I can't stop lovin' you



This suck ,but it works

Gtr I (E A D G B E) - 'Clean Electric guitar
Gtr II (E A D G B E) - 'Overdriven guitar'


 h   - hammer-on
 p   - pull-off
 b   - bend
 pb  - pre-bend
 r   - bend release (if no number after the r, then release immediately)
 /\  - slide into or out of (from/to "nowhere")
 s   - legato slide
 S   - shift slide
  - natural harmonic
[n]  - artificial harmonic
n(n) - tapped harmonic
 ~   - vibrato
 tr  - trill
 T   - tap
 TP  - trem. picking
 PM  - palm muting
\n/  - tremolo bar dip; n = amount to dip
 \n  - tremolo bar down
 n/  - tremolo bar up
/n\  - tremolo bar inverted dip
 =   - hold bend; also acts as connecting device for hammers/pulls
 <>  - volume swell (louder/softer)
 x   - on rhythm slash represents muted slash
 o   - on rhythm slash represents single note slash
xsx  - guitar fret noise
()   - Still ringing the previous note
 Intro
  
         Asus4    A       AsuA2
 4/4
         Gtr I
|--------0-0-|-0--0-0-(0)-0--0-|-(0)----||
|--------3-3-|-3--2-2-(2)-0--2-|-(2)----||
|--------2-2-|-2--2-2-(2)-2--2-|-(2)----||
|--------2-2-|-2--2-2-(2)-2--2-|-(2)----||
|--------0-0-|-0--0-0-(0)-0--0-|-(0)----||
|------------|-----------------|--------||
|
| Gtr II
|------------|-----------------|--------||
|------------|-----------------|--------||
|------------|-----------------|--------||
|------------|-----------------|--------||
|------------|-----------------|--------||
|------------|-----------------|--------||


  Asus4   A         Asus2
|--0--------0-(0)---0-|
|--3--------2-(2)---0-|
|--2--------2-(2)---2-|
|--2------------------|
|--0------0-----------|
|---------------------|
|
|  ~~~~~~~~~~~~~~~~~~~~
|---------------------|
|-10(22)--------------|
|---------------------|
|---------------------|
|---------------------|
|---------------------|

gtr I
            A                                      Asus4/F# A/F#      Asus2/F#
|---0----------0----------(0)----------0-------0-|--0---------0-(0)-----|
|---0----------2----------(2)----------0-------2-|--3---------2-(2)---0-|
|---2----------2----------(2)--------------------|--2---------2-(2)---2-|
|------------------------------------------------|----------------------|
|-----------0------------------------------------|----------------------|
|------------------------------------------------|--------2-2-----------|
|Gtr II
|~~~~~~~~~~    T           T             T          ~~~~~~
|------------------------------------------------|----------------------|
|-(10(22))----10(22)b12==(10(22))r(10)---9(21)---|-10(22)---------------|
|------------------------------------------------|----------------------|
|------------------------------------------------|----------------------|
|------------------------------------------------|----------------------|
|------------------------------------------------|----------------------|

Gtr I
             A/F#                                   D5            A/DE
                                                              PM
|---------------0----------(0)--------------------|---------------0---0---------|
|---0-----------2----------(2)----------0h======2-|--3----------3-2---0---------|
|---2-----------2----------(2)----------2---------|--2------x-2-2-2---1---------|
|-------------------------------------------------|--0--------0-0-0---2---------|
|-------------------------------------------------|-------------------2---------|
|----------2-2------------------------------------|-------------------0---------|
|Gtr II
|   ~~~~~~~~    T           T             T          ~~~~~~           T
|-------------------------------------------------|-----------------------------|
|-(10(22))-----10(22)b12==(10(22))r(10)---9(21)---|-10(22)-----------10(22)b12==|
|-------------------------------------------------|-----------------------------|
|-------------------------------------------------|-----------------------------|
|-------------------------------------------------|-----------------------------|
|-------------------------------------------------|-----------------------------|

Gtr I
              Esus4               E
|--(0)---------0----------(0)-----------------------------|
|--(0)---------0----------(0)-----------------------------|
|--(1)---------2----------(2)-----1-----------------------|
|--(2)---------2----------(2)-----2-----------------------|
|--(2)---------2----------(2)-----2---------------------0-|
|--(0)----------------------------------------------------|
|Gtr II
|   T          T           T          T           T
|---------------------------------------------------------|
|-(10(22))r---10(22)b12==(10(22))---(10(22))r(10)-9(21)---|
|---------------------------------------------------------|
|---------------------------------------------------------|
|---------------------------------------------------------|
|---------------------------------------------------------|

Gtr I

                                               Verse 1
  Asus4   A       AsuA5                         AsusA       Asus2
                                         PM|                PM
|-----------0-(0)-0------|---0---------------||---------------|
|--3------2-2-(2)-0------|---2---------------||-3---2-(2)-----|
|--2------2-2-(2)-2--2-2-|---2---------------||-2---2-(2)---2-|
|--2------2-2-(2)-2--2-2-|---2---------------||-2-------------|
|--0------0-0-(0)-0--0-0-|---0-----------0---||-0-------------|
|------------------------|-----------------0-||---------------|
|Gtr II
|  ~~~~~~~~~~~~~~~~~~~~~~~~~~~~~~~~~
|------------------------|-------------------||---------------|
|-10(22)-----------------|-(10(22))----------||---------------|
|------------------------|-------------------||---------------|
|------------------------|-------------------||---------------|
|------------------------|-------------------||---------------|
|------------------------|-------------------||---------------|

Gtr I

        A            Asus4A/F#     Asus2/F# A/F#
  PM--|                 PM       PM-------|
|-------0-(0)------|-----------------|-----------------|
|-0-----2-(2)--0-2-|-3----2-(2)----0-|-0----2-(2)--0-2-|
|-------2-(2)----2-|-2----2-(2)----2-|-2----2-(2)--2-2-|
|------------------|-----------------|-----------------|
|---0-0------------|-----------------|-----------------|
|------------------|----2--------2---|----2------------|

Gtr I
  Dsus2      A/DE         Esus4 E      Asus4A       Asus2
                                   PM--|  PM        PM
|-0----0-(0)-0----|-------0-(0)-0----|----------------|
|-3--3-3-(3)-2----|-------0-(0)-0----|-3----2-(2)---0-|
|-2----2-(2)-2--1-|-(1)---2-(2)-1----|-2----2-(2)---2-|
|-0-------------2-|-(2)---2-(2)-2----|-2--2-----------|
|---------------2-|-(2)---2-(2)-2--0-|----------------|
|---------------0-|-(0)---0-(0)-0----|----------------|

Gtr I
       A            Asus4A/F#     Asus2/F#  A/F#
  PM-|              PM          PM------------|
|------0-(0)--0---|-----------------|--------------0-0-|
|-0----2-(2)----2-|-3----2-(2)----0-|-0-----2-(2)--2-2-|
|-2----2-(2)----2-|-2----2-(2)----2-|-2-----2-(2)--2-2-|
|-----------------|-----------------|------------------|
|----0------------|-----------------|------------------|
|-----------------|----2--------2---|---2-2------------|

Gtr I

  Dsus2     A/DE                  F#m
|-0---0-(0)-0------|-0---------------|------------------|
|-3---3-(3)-2------|-0---------0-----|-2----------------|
|-2---2-(2)-2--1-1-|-1---1-(1)-1-----|---2--------2-----|
|-0---0-(0)-0--2-2-|-2---2-(2)-2-----|-----4--(4)-4-----|
|--------------2-2-|-2---2-(2)-2--/4-|------------4--/4-|
|--------------0-0-|-0---------0-----|------------------|

Gtr I
                    Pre-Chorus 1
                     D5
|-------2-(2)-----||-0----0-0-0-0-|-----------0---0-0--|
|-----2-----------||-3------------|--3--3-3-3-2-2-2-2--|
|---2-------------||-2------------|--------------------|
|-4---------------||-0------------|--------------------|
|-----------------||--------------|--------------------|
|-----------------||--------------|--------------------|
|
|                  Gtr II                   
| TP  TP   TP TP                              TPTPTPTP
|-----------------||--------------|--------------------|
|-----------------||--------------|--------------------|
|-xs==xs===xs=x\--||-7------------|-(7)-------xsxsxsx\-|
|-xs==xs===xs=x\--||-7------------|-(7)-------xsxsxsx\-|
|-----------------||-5------------|-(5)----------------|
|-----------------||--------------|--------------------|

Gtr I
  Bm                                G5
                     PM---------------------|
|-^2---------|--------------------|------------|
|-^3----2----|-------3-3-2-2-2--2-|-0----------|
|-^4---------|--4--4-4-4-2-2-2--2-|-0-------0--|
|-^4---------|--------------------|-0----4-----|
|-^2---------|--------------------|-x----------|
|------------|--------------------|-3----------|
|
| Gtr II                           Gtr II
|                    TP  TP  TP
|-^2---------|-(2)----------------|------------|
|-^3---------|-(3)----------------|------------|
|-^4---------|-(4)---xs==xs==x\---|------------|
|-^4---------|-(4)---xs==xs==x\---|-5----------|
|-^2---------|-(2)----------------|-5----------|
|------------|--------------------|-3----------|

Gtr I
                      E5
   PM-------------|
|-------------------|---------------0-0-|-0---0-(0)-----|
|-------------------|---------------0-0-|-0---0-(0)-----|
|-----0-0-----------|-1----(1)----------|---------------|
|--2-------0-0-0--0-|-2----(2)----------|---------------|
|-------------------|-2----(2)----------|---------------|
|-------------------|-0----(0)----------|---------------|
|
|                     Gtr II          
|          TP  TP                     TP  TP  TP TP TP
|-------------------|-------------------|---------------|
|-------------------|-------------------|---------------|
|----------xs==x\---|-----------------xs|=xs==xs=xs=x\--|
|-(5)------xs==x\---|-2----(2)--(2)---xs|=xs==xs=xs=x\--|
|-(5)---------------|-2----(2)--(2)-----|---------------|
|-(3)---------------|-0----(0)--(0)-----|---------------|


 Chorus

Gtr I
  Asus4A       Asus2    A              Asus4/A/F#    Asus2/F#
|-0----0-(0)---0-|--0-----0-(0)--0-0-|-0-----0-(0)-----|
|-3----2-(2)---0-|--0-----2-(2)--0-2-|-3-----2-(2)---0-|
|-2----2-(2)---2-|--2-----2-(2)------|-2-----2-(2)---2-|
|-2--------------|-------------------|-----------------|
|-0--0-----------|------0------------|-----------------|
|----------------|-------------------|---2-2-----------|
|
| Gtr II
|----------------|-------------------|-----------------|
|----------------|-------------------|-----------------|
|----------------|-------------------|-----------------|
|-7--------------|-(7)---------------|-4---------------|
|-7--------------|-(7)---------------|-4---------------|
|-5--------------|-(5)---------------|-2---------------|

Gtr I
          A/F#           Dsus2      A/DE         Esus4 E
                              PM
|---------0-(0)--------|------------0--0-|-(0)---0-(0)------|
|--0------2-(2)---0h=2-|-3-------3--2--0-|-(0)---0-(0)------|
|--2------2-(2)---2----|-2--x-2--2--2--1-|-(1)---2-(2)-1----|
|----------------------|-0----0--0--0--2-|-(2)---2-(2)-2----|
|----------------------|---------------2-|-(2)---2-(2)-2--0-|
|-----2-2--------------|---------------0-|-(0)--------------|
|
|                        Gtr II
|               TPTP
|----------------------|-----------------|------------------|
|----------------------|-----------------|------------------|
|---------------xsx\---|-7------(7)------|------------------|
|-(4)-------(4)-xsx\---|-7------(7)----2-|-(2)--------------|
|-(4)-------(4)--------|-5------(5)----2-|-(2)--------------|
|-(2)-------(2)--------|---------------0-|-(0)--------------|

Gtr I
                                                    Verse 2
  AsuA4      Asus2                                   AsusA
                                                                 PM
|------0-(0)-0------|-5-7-4---0-------------------||----------------|
|-3--2-2-(2)-0------|---------0-------------------||-3---2-(2)------|
|-2--2-2-(2)-2--2-2-|-----------------------------||-2---2-(2)---2--|
|-2--2-2-(2)-2--2-2-|-------6-7-(7)s6-(6)s4-(4)s2-||-2--------------|
|-0--0-0-(0)-0--0-0-|-----------------------------||-0--------------|
|-------------------|-----------------------------||----------------|
|Gtr II
|-------------------|-0---------------------------||----------------|
|-------------------|-0---------------------------||----------------|
|-------------------|-1---------------------------||----------------|
|-7-----------------|-2---------------------------||----------------|
|-7-----------------|-2---------------------------||----------------|
|-5-----------------|-0---------------------------||----------------|

Gtr I
  Asus2 A            Asus4A/F#     Asus2/F#
  PM--|                 PM       PM-------
|-------0-(0)------|---------------------|
|-0-----2-(2)--0-2-|-3----2-(2)----0-----|
|-------2-(2)----2-|-2----2-(2)----2-----|
|------------------|---------------------|
|---0-0------------|---------------------|
|------------------|----2--------2-------|
|
|  Gtr II                          T
|------------------|---------------------|
|------------------|---------------------|
|------------------|---------------2(14)-|
|------------------|---------------------|
|------------------|---------------------|
|------------------|---------------------|

Gtr I
                 A/F#
 PM-----------PM
|----------------------------------------|
|--0-------------2----(2)---------0-2----|
|--2-------------2----(2)---------2-2----|
|----------------------------------------|
|----------------------------------------|
|--------------2-------------------------|
|Gtr II
|  T      T      T     T     T      T
|----------------------------------------|
|----------------------------------------|
|-(2(14))-2(9)---2(7)-(2(7))-2(6)---2(5)-|
|----------------------------------------|
|----------------------------------------|
|----------------------------------------|

Gtr I
  Dsus2           A/DE         Esus4 E      Asus4A                  Asus2
                                        PM--|  PM                   PM
|--0--------0-(0)-0----|-------0-(0)-0----|-----------------------------------|
|--3------3-3-(3)-2----|-------0-(0)-0----|-3----2-(2)--------------0---------|
|--2--------2-(2)-2--1-|-(1)---2-(2)-1----|-2----2-(2)--------------2---------|
|--0-----------------2-|-(2)---2-(2)-2----|-2--2------------------------------|
|--------------------2-|-(2)---2-(2)-2--0-|-----------------------------------|
|--------------------0-|-(0)---0-(0)-0----|-----------------------------------|
|Gtr II
|  T                                                   T            T
|----------------------|------------------|------------9(21)b11r(9)-9(21)b11r=|
|----------------------|------------------|-----------------------------------|
|-(2(5))---------------|------------------|-----------------------------------|
|----------------------|------------------|-----------------------------------|
|----------------------|------------------|-----------------------------------|
|----------------------|------------------|-----------------------------------|


Gtr I

                  A
   PM------|
|-----------------0-----(0)---0-----------------|
|--0--------------2-----(2)--------------2------|
|--2--------------2-----(2)--------------2------|
|-----------------------------------------------|
|-----------0-----------------------------------|
|-----------------------------------------------|
|Gtr II
|  T        T     T           T          T
|-(9(21))---------------------------------------|
|----------10(22)-------------------------------|
|-----------------9(21)------(9(21))b11r(9(21))-|
|-----------------------------------------------|
|-----------------------------------------------|
|-----------------------------------------------|

Gtr I

  Asus4/F#   A/F#     Asus2/F#        A/F#
   PM               PM-----PM---------PM
|-----------------------|--------------------0-0-|
|--3---------2-(2)----0-|--0----------2-(2)--2-2-|
|--2---------2-(2)----2-|--2----------2-(2)--2-2-|
|-----------------------|------------------------|
|-----------------------|------------------------|
|----------2--------2---|---------2-2------------|
|Gtr II
|  >
|  ~~~~~~~~~~~~~~~~~~~~~~~~~~~~~~~
|-----------------------|------------------------|
|-----------------------|------------------------|
|-(9(21))---------------|-(9(21))----------------|
|-----------------------|------------------------|
|-----------------------|------------------------|
|-----------------------|------------------------|

Gtr I
  Dsus2     A/DE                       B5           Bsus2
|-0---0-(0)-0------|-0---------------|--------------2-2-|
|-3---3-(3)-2------|-0---------------|--------------2-2-|
|-2---2-(2)-2--1-1-|-1---2-(2)-1-----|-4------------4-4-|
|-0---0-(0)-0--2-2-|-2---2-(2)---4-2-|-4------------4-4-|
|--------------2-2-|-2---2-(2)-------|-2--2-2-2-2-2-----|
|--------------0-0-|-0---------------|------------------|


                   Pre-Chorus 2
Gtr I
            C5
                                   PM----------|
|-2--------------||--------------|-----------------|
|-2--------------||------3-3-3-3-|-3---3---3-3-3---|
|-4---------5--5-||-5------------|---5---5-4-4-4---|
|-4---------5--5-||-5------------|-----------------|
|-2---------3--3-||-3------------|-----------------|
|----------------||--------------|-----------------|
|
|                  Gtr I 
|   TPTP TP TP           TP  TP    TP  TP  TP  TP
|----------------||--------------|-----------------|
|----------------||--------------|-----------------|
|---xsxs=xs=x\---||-5----xs==xs==|=xs==xs==xs==x\--|
|---xsxs=xs=x\---||-5----xs==xs==|=xs==xs==xs==x\--|
|----------------||-3------------|-----------------|
|----------------||--------------|-----------------|


  A5                              F5
                                       PM
|-0----------|------------------|-------------|
|-1----0-----|-1-1-1-1-0-0-0--0-|-------------|
|-2----------|-2-2-2-2-0-0-0--0-|-------------|
|-2----------|------------------|-3----2------|
|-0----------|------------------|-3-----------|
|------------|------------------|-1-----------|
|
| Gtr I                         Gtr I 
|      TP TP   TP  TP  TP  TP          TP TP
|------------|------------------|-------------|
|------------|------------------|-------------|
|------xs=xs=|=xs==xs==xs==x\---|------xs=xs==|
|-7----xs=xs=|=xs==xs==xs==x\---|-3----xs=xs==|
|-7----------|------------------|-3-----------|
|-5----------|------------------|-1-----------|


                 E     E5
  PM----------|
|--------------------|-0----(0)-----0-|
|--------------------|-0----(0)-----0-|
|----------------1-1-|-1----(1)-2---1-|
|-0-0-0-0--------2-2-|-2----(2)-----2-|
|---------3-3-3--2-2-|-2----(2)-------|
|----------------0-0-|-0----(0)-------|
|
|                      Gtr II
| TP  TP  TP  TP
|--------------------|----------------|
|--------------------|----------------|
|-xs==xs==xs==x\-----|----------------|
|-xs==xs==xs==x\-----|-2----------x---|
|--------------------|-2--------------|
|--------------------|-0--------------|

Gtr I
|-(0)---------------------------------------||
|-(0)---------------------------------------||
|-(1)---------------------------------------||
|-(2)---------------------------------------||
|-------------------------------------------||
|-------------------------------------------||
|Gtr II
|  PM----------------------------------|
|-12--12-12-12-12-12-12-12-12-12-12-12-12---||
|-------------------------------------------||
|-------------------------------------------||
|-------------------------------------------||
|-------------------------------------------||
|-------------------------------------------||


 Chorus 2

Gtr I
  Asus4A       Asus2      A            Asus4/A/F#    Asus2/F#
|-0----0-(0)---0-|--0-----0-(0)--0-0-|-0-----0-(0)-----|
|-3----2-(2)---0-|--0-----2-(2)--0-2-|-3-----2-(2)---0-|
|-2----2-(2)---2-|--2-----2-(2)------|-2-----2-(2)---2-|
|-2--------------|-------------------|-----------------|
|-0--0-----------|------0------------|-----------------|
|----------------|-------------------|---2-2-----------|
|Gtr II
|----------------|-------------------|-----------------|
|----------------|-------------------|-----------------|
|----------------|-------------------|-----------------|
|-7--------------|-(7)---------------|-4---------------|
|-7--------------|-(7)---------------|-4---------------|
|-5--------------|-(5)---------------|-2---------------|

Gtr I
          A/F#         Dsus2      A/DE         Esus4 E
                            PM
|---------0-(0)------|------------0--0-|-(0)---0-(0)------|
|--0------2-(2)--0h2-|-3-------3--2--0-|-(0)---0-(0)------|
|--2------2-(2)--2---|-2--x-2--2--2--1-|-(1)---2-(2)-1----|
|--------------------|-0----0--0--0--2-|-(2)---2-(2)-2----|
|--------------------|---------------2-|-(2)---2-(2)-2--0-|
|-----2-2------------|---------------0-|-(0)--------------|
|Gtr II
|--------------------|-----------------|------------------|
|--------------------|-----------------|------------------|
|--------------------|-7------(7)------|------------------|
|-(4)----------------|-7------(7)----2-|-(2)--------------|
|-(4)----------------|-5------(5)----2-|-(2)--------------|
|-(2)----------------|---------------0-|-(0)--------------|

Gtr I

                                                       Bridge 1
  A5                                                    Bm
                                                   ~~~~~~~~~~
|-0---0-(0)-----------|------------------------------||-------------------|
|-3---2-(2)-----------|------17--------------17------||-------------------|
|-2---2-(2)---16pb18==|=(16)----16r(16)b18-----------||-------------------|
|-2---2-(2)-----------|---------------------------16-||-(16)--------------|
|-0---0-(0)-----------|------------------------------||-------------------|
|---------------------|------------------------------||-------------------|
|Gtr II
|                         PM----------------------|           PM--------|
|---------------------|------------------------------||---2---------------|
|---------------------|------------------------------||---3---------------|
|---------------------|------------------------------||---4---------------|
|-7-------------------|------------------------------||---4---------------|
|-7-------------------|------------------------------||---2---2-2-2-2-2-2-|
|-5-------------------|---5---5--5---5-----5--5-5--5-||-------------------|

Gtr I
                        E5           C#            A5
|-------------------2-|----------------|------------------0-|
|-----------------3---|----------------|---------5------0---|
|---------------4-----|-9--------------|-------6------2-----|
|---------------------|-9--------------|-----6-----/2-------|
|-------2s4-(4)-------|-7--------------|--4-----------------|
|---------------------|----------------|--------------------|
|Gtr II
| PM----------------|      PM------|         PM-----------|
|---------------------|----------------|--------------------|
|---------------------|--------------4-|-(4)----------------|
|---------------------|-9------------6-|-(6)----------------|
|---------------------|-9------------6-|-(6)----------------|
|-2-2-2---2--2--2-2-2-|-7--7-7-7-7-7-4-|-(4)-4-4-4----------|
|---------------------|----------------|------------5-5-5-5-|

Gtr I
  Bm                                     E5
|----------------|-------------------2-|--------------------|
|-3--------------|-----------------3---|--------------------|
|-4--------------|---------------4-----|-9------(9)-----9-9-|
|-4--------------|-------2s4-(4)-------|-9------(9)-----9-9-|
|-2--------------|---------------------|-7------(7)-----7-7-|
|----------------|---------------------|--------------------|
|Gtr II
|    PM------------------------------|      PM------------|
|-0--------------|---------------------|--------------------|
|-3--------------|---------------------|--------------------|
|-4--------------|---------------------|-9------------------|
|-4--------------|---------------------|-9------------------|
|-2--2-2-2-2-2-2-|-2-2-2---2--2--2-2-2-|-7--7-7--7--7-7-7-7-|
|----------------|---------------------|--------------------|


 Guitar Solo
Gtr I
    Esus4       E           C                                  D
|-------------------------|---------------------------------------|
|---10-10-10-10-9---------|---------------------------------------|
|-9--9--9--9--9-9---------|--5----------------5-(5)----------5s=7-|
|-9--9--9--9--9-9---------|--x----------------x-(x)----------x----|
|-7--7--7--7--7-7---------|--3----------------3-(3)----------3s=5-|
|-------------------------|---------------------------------------|
|
|               Gtr Gtr II
|-------------------------|---------------------------------------|
|-------------------------|---------------------------------------|
|-------------------12-12-|-12-(12)s11-(11)s9-9-(9)-(9)s12--12s14-|
|-------------------------|---------------------------------------|
|-------------------------|---------------------------------------|
|---------------xsx-------|---------------------------------------|

Gtr I
|---------------------------------------------------|
|---------------------------------------------------|
|--(7)----------------------------------------------|
|---------------------------------------------------|
|--(5)----------------------------------------------|
|---------------------------------------------------|
|Gtr II
|---------------------------------------------------|
|---------------------------------------------------|
|-(14)-(14)s12-(12)s11-(11)s9-(9)-------------5h7h9-|
|---------------------------------------5h7h9-------|
|---------------------------------5h7h9-------------|
|---------------------------------------------------|

Gtr I
  D11/A             C/G                          D11/A                   C/G
|----------------------|-----------------------|-------------------------------|
|----------------------|-----------------------|-------------------------------|
|-------0-----------0--|-(0)----(0)------------|------0------------------0-----|
|---------4-(4)-----2--|-(2)----(2)----------2-|-----------4--(4)--------2-----|
|-5-------------5---3--|-(3)----(3)---3--------|-5------------------5----3-----|
|-5-----------------3--|-(3)----(3)-3----------|-5-----------------------3-----|
|Gtr II
|                                                   <    <     <       <     <
| ~             PM  ~~~~~~~~~~~~~~~~
|----------------------|-----------------------|---14---15----15b17------------|
|-7-(7)h8-7-(7)--------|-----------------------|----------------------15----17-|
|---------------7-7s9--|-(9)----(9)-----(9)s12-|-------------------------------|
|----------------------|-----------------------|-------------------------------|
|----------------------|-----------------------|-------------------------------|
|----------------------|-----------------------|-------------------------------|

Gtr I
                       D11/A                       C/G
|--------------------|--------------------------------------|
|--------------------|--------------------------------------|
|--(0)-----(0)-------|-------0----------------------0-------|
|--(2)-----(2)-----2-|----------4--------(4)--------2-------|
|--(3)-----(3)---3---|-5----------------------5-----3-------|
|--(3)-----(3)-3-----|-5----------------------------3-------|
|Gtr II
|           ~~~~
|--------------------|---10s17-15h17p15\-14-----------------|
|-(17)----(17)-------|-----------------------15-------------|
|--------------------|--------------------------14s13s11----|
|--------------------|-----------------------------------12-|
|--------------------|--------------------------------------|
|--------------------|--------------------------------------|
Gtr I

|--------------------------------------------|
|--------------------------------------------|
|----(0)-----------------------(0)-----------|
|----(2)-----------------------(2)---------2-|
|----(3)-----------------------(3)-------3---|
|----(3)-----------------------(3)-----3-----|
|Gtr II
|                                      ~~
|--------------------------------------------|
|--------------------------------------------|
|--------------------------------------------|
|-------------------------------------12-----|
|-12s10--(10)h12p10p9h10p9s10-(10)h12--------|
|--------------------------------------------|

Gtr I
                                                                     PM--|
|-------------------------^0--|--(0)------------|--------------------------|
|-------------------------^0--|--(0)------------|------3s5-(5)s3-2---------|
|-------------0-----------^2--|--(2)------------|------------------2-------|
|---------------4-(4)-----^2--|--(2)------------|--------------------2-0---|
|---5-----------------5---^0--|--(0)------------|------------------------4-|
|---5-------------------------|-----------------|--------------------------|
|Gtr II
|                                           >
|               ~~~~~~
|-----------------------------|-----------------|--------------------------|
|-------------8-7-(7)---8s10--|-(10)------(10)--|-(10)---------------------|
|-----------x---------7-------|-----------------|--------------------------|
|-(12)\---x-------------------|-----------------|--------------------------|
|-------x---------------------|-----------------|--------------------------|
|-----------------------------|-----------------|--------------------------|


 Bridge 2
Gtr I
  A                                 F#m7
|-----5-----5----|---5------5-----|-----5-----5----|
|---5-----5------|-5------5-------|---5-----5------|
|----------------|----------------|----------------|
|-7-----6------4-|------6-----4-6-|-7-----6------4-|
|----------------|----------------|----------------|
|----------------|----------------|----------------|
Gtr I

                   Dsus2         E                  Asus4
|---5------5-----|-----5-----5-----|-------4---5-4-----------|
|-5------5-------|---5-----5-------|-----5----------15-15-15-|
|------------4-6-|-7-----7-----6-4-|-(4)-----4------14-14-14-|
|------6---------|-----------------|----------------14-14-14-|
|----------------|-----------------|-------------------------|
|----------------|-----------------|-------------------------|

Gtr I
      A          AsusA
|--------------------------|-----------------|
|-15--14-14-(14)-12--14-14-|-14--------x--x--|
|-14--14-14-(14)-14--14-14-|-14--------x--x--|
|-14--14-14-(14)-14--14-14-|-14--------x--x--|
|--------------------------|-----------------|
|--------------------------|-----------------|
|
|                             
|                                TP TP TP
|--------------------------|-----------------|
|--------------------------|-----------------|
|--------------------------|-----xs=xs=x\----|
|--------------------------|-----xs=xs=x\----|
|--------------------------|-----------------|
|--------------------------|-----------------|


  Chorus
Gtr I
   Asus4A       Asus2      A            Asus4/A/F#    Asus2/F#
||-0----0-(0)---0-|--0-----0-(0)--0-0-|-0-----0-(0)-----|
||-3----2-(2)---0-|--0-----2-(2)--0-2-|-3-----2-(2)---0-|
||-2----2-(2)---2-|--2-----2-(2)------|-2-----2-(2)---2-|
||-2--------------|-------------------|-----------------|
||-0--0-----------|------0------------|-----------------|
||----------------|-------------------|---2-2-----------|
|
|  Gtr II
||----------------|-------------------|-----------------|
||----------------|-------------------|-----------------|
||----------------|-------------------|-----------------|
||-7--------------|-(7)---------------|-4---------------|
||-7--------------|-(7)---------------|-4---------------|
||-5--------------|-(5)---------------|-2---------------|

Gtr I
          A/F#         Dsus2      A/DE         Esus4 E
                            PM
|---------0-(0)------|------------0--0-|-(0)---0-(0)------|
|--0------2-(2)--0h2-|-3-------3--2--0-|-(0)---0-(0)------|
|--2------2-(2)--2---|-2--x-2--2--2--1-|-(1)---2-(2)-1----|
|--------------------|-0----0--0--0--2-|-(2)---2-(2)-2----|
|--------------------|---------------2-|-(2)---2-(2)-2--0-|
|-----2-2------------|---------------0-|-(0)--------------|
|Gtr II
|--------------------|-----------------|------------------|
|--------------------|-----------------|------------------|
|--------------------|-7------(7)------|------------------|
|-(4)----------------|-7------(7)----2-|-(2)--------------|
|-(4)----------------|-5------(5)----2-|-(2)--------------|
|-(2)----------------|---------------0-|-(0)--------------|

Gtr I
  Asus4A       Asus2      A            Asus4/A/F#    Asus2/F#
|-0----0-(0)---0-|--0-----0-(0)--0-0-|-0-----0-(0)-----|
|-3----2-(2)---0-|--0-----2-(2)--0-2-|-3-----2-(2)---0-|
|-2----2-(2)---2-|--2-----2-(2)------|-2-----2-(2)---2-|
|-2--------------|-------------------|-----------------|
|-0--0-----------|------0------------|-----------------|
|----------------|-------------------|---2-2-----------|
|Gtr II
|----------------|-------------------|-----------------|
|----------------|-------------------|-----------------|
|----------------|-------------------|-----------------|
|-7--------------|-(7)---------------|-4---------------|
|-7--------------|-(7)---------------|-4---------------|
|-5--------------|-(5)---------------|-2---------------|

Gtr I
          A/F#         Dsus2      A/DE         Esus4 E
                            PM
|---------0-(0)------|------------0--0-|-(0)---0-(0)------|
|--0------2-(2)--0h2-|-3-------3--2--0-|-(0)---0-(0)------|
|--2------2-(2)--2---|-2--x-2--2--2--1-|-(1)---2-(2)-1----|
|--------------------|-0----0--0--0--2-|-(2)---2-(2)-2----|
|--------------------|---------------2-|-(2)---2-(2)-2--0-|
|-----2-2------------|---------------0-|-(0)--------------|
|Gtr II
|--------------------|-----------------|------------------|
|--------------------|-----------------|------------------|
|--------------------|-7------(7)------|------------------|
|-(4)----------------|-7------(7)----2-|-(2)--------------|
|-(4)----------------|-5------(5)----2-|-(2)--------------|
|-(2)----------------|---------------0-|-(0)--------------|

Gtr I
  Asus4A       Asus2       A            Asus4/A/F#      Asus2/F#
|-0----0-(0)---0-|--0------0-(0)--0-0-|-0-----0-(0)-------|
|-3----2-(2)---0-|--0------2-(2)--0-2-|-3-----2-(2)-----0-|
|-2----2-(2)---2-|--2------2-(2)------|-2-----2-(2)-----2-|
|-2--------------|--------------------|-------------------|
|-0--0-----------|-------0------------|-------------------|
|----------------|--------------------|---2-2-------------|
|Gtr II
|                      PM--|              PM------------|
|----------------|--------------------|-------------------|
|----------------|--------------------|-------------------|
|----------------|--------------------|-------------------|
|-7--------------|--------------------|-4-----------------|
|-7--------------|--------------------|-4-----------------|
|-5--------------|-(5)-5-5-5-(5)------|-2-2-2-2--2--2-2-2-|

Gtr I

        A/F#          Dsus2    A/DE
                           PM
|-------0-(0)-------|----------0--0-|-(0)------------0-0-|
|-0-----2-(2)---0h2-|-3------3-2--0-|-(0)---------0--3-3-|
|-2-----2-(2)---2---|-2--x-2-2-2--1-|-(1)---2-(2)-1--2-2-|
|-------------------|-0----0-0-0--2-|-(2)---2-(2)-2--2-2-|
|-------------------|-------------2-|-(2)---2-(2)----0-0-|
|---2-2-------------|-------------0-|-(0)----------------|
|Gtr II
| PM--------------|      PM|
|-------------------|---------------|--------------------|
|-------------------|---------------|--------------------|
|-------------------|-7------7-7----|--------------------|
|-------------------|-7------7-7--2-|-(2)----------------|
|-------------------|-5--5-5-5-5--2-|-(2)----------------|
|-2-2-2-2--2--2-2-2-|-------------0-|-(0)----------------|

Gtr I
  AsuA4      AsuA2
                     >
|-0--0-0--0--0--0-|-(0)--------|-(0)----*|
|-3--2-2--2--0--2-|-(2)--------|-(2)----*|
|-2--2-2--2--2--2-|-(2)--------|-(2)----*|
|-2--2-2--2--2--2-|-(2)--------|-(2)----*|
|-0--0-0--0--0--0-|-(0)--------|-(0)----*|
|-----------------|------------|--------*|
|Gtr II
|                    >
|-----------------|------------|--------*|
|-----------------|------------|--------*|
|-----------------|------------|--------*|
|-7------(7)----7-|-(7)--------|-(7)----*|
|-7------(7)----7-|-(7)--------|-(7)----*|
|-5------(5)----5-|-(5)--------|-(5)----*|


Lyrics


There’s a time and place for everything, for everyone
We can push with all our might, but nothin’s gonna come
Oh no, nothin’s gonna change
And if I asked you not to try
Oh could you let it be
I wanna hold you and say
We can’t throw this all away
Tell me you won’t go, you won’t go
Do you have to hear me say

I can’t stop lovin’ you
And no matter what I say or do
You know my heart is true, oh
I can’t stop loving you

You change your friends, your place in life
You can change your mind, we can change the way we say
And do anytime
Oh no, but I think you’ll find
That when you look inside your heart
Oh baby, I’ll be there, yeah

Hold on
I’m holding on
Baby, just come on, come on, cdome on
I just wanna hear you say

I can’t stop lovin’ you
And no matter what you say or do
You know my heart is true, oh
I can’t stop lovin’ you

Oh, I’m so twisted and tied
And all I remember
Was how hard we tried
Only to surrender

And when it’s over
I know how it’s gonna be
And true love will never die
No, not fade away

And I can’t stop lovin’ you
No matter what I say or do
You know my heart is true, oh
I can’t stop lovin’ you

And I know what I got to do
Hey ray, what you said is true
I can’t stop lovin’ you, oh
Oh, I can’t stop lovin’ you
comments
print report bad tab
6 comments total. Showing first comments.
+2 reply
van-halen rock wrote on March 1 2006, 10:44 am

why does this tab only have 3 stars????? its perfect 5 stars from me

+2 reply
bgarnham wrote on January 29 2007, 10:23 pm

van halen is a real genius

+1 reply
Dev_guitar wrote on April 19 2007, 10:45 pm

awesome tab

I want to post or [tab]
guest
You may want to rate the tab now too:
select rating
Please do not post tabs as comments. Select "correction" instead!