Oops, an error
Loading. Please wait.

Namaste Tab

ver1
ver1

Intro

Whole song

Interactive

More versions @911Tabs.com
3,387 views 6 this week
2 commentsread comments
1 2 3 4 5
accurate
x 1
Autoscroll
+/-
esc
set tempo
stop
Contributor
Hey! There's an official Ultimate Guitar app which is ideal
for learning songs when you're away from computer. Get the app
WARNING: You are trying to view
                                    content from Ultimate-Guitar.com
                                    in an unauthorized application,
                                    which is prohibited.

                                    Please use an official Ultimate
                                    Guitar Tabs application for iPhone,
                                    iPad or Android to access legitimate
                                    chords, guitar, bass, and drum tabs
                                    from Ultimate-Guitar.com database.

                                    Type "ultimate guitar tabs" in Apple
                                    App Store's or Android Market's
                                    search to find the application.
Song name: Namaste
Artist: Veil of Maya
Transcribed by Shane Lyons with the help of AlucardXIX (Anthony D)
Email: icedogs41@yahoo.com

Some of this is off by a little bit. The fast run after the first set of breakdowns is 
100%
i just cant seem to get it right. Other than that it should be right. The rythms are the 
numbers
4 8 1 6 2 3 4 2. They go in that pattern.

Tuning is DROP B: B F# B E G# C#

HAVE FUN!

 vvvv bend the 5 on this last chord in the progression

C#|---------------------|---------------------|----------------10---|--------------------|
G#|---------------------|---------------------|-11--------11--------|-11--------11-------|
 E|---------------------|----------------14---|------14-------------|------14--------19--|
 B|-7----8----7----5----|---------------------|---------------------|--------------------|
F#|-5----5----5----1----|-5-------------------|---------------------|--------------------|
 B|-4----4----4----1----|-1-------------------|---------------------|--------------------|


C#|----------------15---|---------------------|---------------------|---------------------|
G#|-16--------16--------|-16--------16--------|---------------------|---------------------|
 E|------19-------------|------19-------------|---------------------|---------------------|
 B|---------------------|---------------------|---------------------|-0-------------------|
F#|---------------------|---------------------|---------------------|---------------------|
 B|---------------------|---------------------|-1----0----1----4----|------1----0----1----|


C#|---------------------|---------------------|---------------------|---------------------|
G#|---------------------|---------------------|---------------------|---------------------|
 E|---------------------|---------------------|---------------------|---------------------|
 B|----------------0----|---------------------|-----------0---------|-8-------------------|
F#|---------------------|---------------------|---------------------|----------------5----|
 B|-0----1----4---------|-1----0----1----0----|-1----4--------------|------0----5---------|

                                                     Trill 9 and 10
C#|---------------------|-10-------------11---|-10---9----10--------|---------------------|
G#|---------------------|---------------------|----------------10---|-11--------7----8----|
 E|---------------------|---------------------|---------------------|---------------------|
 B|-5----7----4---------|---------------------|---------------------|---------------------|
F#|------5----5---------|---------------------|---------------------|---------------------|
 B|---------------------|---------------------|---------------------|---------------------|


C#|-----------15---17---|-18---14---15---17---|---------------------|---------------------|
G#|------15-------------|---------------------|---------------------|---------------------|
 E|-15------------------|---------------------|---------------------|---------------------|
 B|---------------------|---------------------|---------------------|-0-------------------|
F#|---------------------|---------------------|---------------------|---------------------|
 B|---------------------|---------------------|-1----0----1----4----|------1----0----1----|


C#|---------------------|---------------------|---------------------|---------------------|
G#|---------------------|---------------------|---------------------|---------------------|
 E|---------------------|---------------------|----------------0----|---------------------|
 B|----------------0----|---------------------|---------------------|---------------------|
F#|---------------------|---------------------|---------------------|---------------------|
 B|-0----1----4---------|-1----0----1---------|-0----1----4---------|-1----0----1----4----|


C#|---------------------|---------------------|---------------------|---------------------|
G#|---------------------|---------------------|---------------------|---------------------|
 E|---------------------|---------------------|---------------------|-----------14--------|
 B|-1-------------------|-1-------------------|----------------1----|---------------------|
F#|---------------------|---------------------|---------------------|---------------------|
 B|------0----1----4----|------1----0----1----|-0----1----4---------|-1----0--------------|


C#|----------------10---|---------------------|----------------15---|---------------------|
G#|-11--------11--------|-11--------11--------|-16--------16--------|-16--------16--------|
 E|------14-------------|------14--------19---|------19-------------|------19-------------|
 B|---------------------|---------------------|---------------------|---------------------|
F#|---------------------|---------------------|---------------------|---------------------|
 B|---------------------|---------------------|---------------------|---------------------|


C#|---------------------|---------------------|---------------------|---------------------|
G#|---------------------|---------------------|---------------------|---------------------|
 E|---------------------|---------------------|---------------------|---------------------|
 B|---------------------|---------------------|---------------------|---------------------|
F#|-0----0---------0----|-0----0---------0----|-0----0----0---------|-0----0---------0----|
 B|-0----0---------0----|-0----0---------0----|-0----0----0---------|-0----0---------0----|


C#|---------------------|---------------------|---------------------|---------------------|
G#|---------------------|---------------------|---------------------|---------------------|
 E|---------------------|---------------------|---------------------|---------------------|
 B|---------------------|---------------------|---------------------|---------------------|
F#|-0----0----0---------|-0---------0---------|-0----0---------0----|-0----0----0----0----|
 B|-0----0----0---------|-0---------0---------|-0----0---------0----|-0----0----0----0----|


C#|---------------------|---------------------|---------------------|---------------------|
G#|---------------------|---------------------|---------------------|---------------------|
 E|---------------------|---------------------|---------------------|---------------------|
 B|-3-------------------|----------------3----|------1----4----5----|-4----1----3---------|
F#|-1-------------------|----------------1----|-0-------------------|-----------1---------|
 B|------0----1----4----|-5----4----1---------|-0----1----4----5----|-4----1---------0----|


C#|---------------------|---------------------|---------------------|---------------------|
G#|---------------------|---------------------|---------------------|---------------------|
 E|---------------------|---------------------|-0---------0---------|---------------------|
 B|---------------------|------3---------5----|------5--------------|-3-------------------|
F#|---------------------|------1----0---------|----------------5----|-1-------------------|
 B|-1----4----5----4----|-1---------0---------|---------------------|------0----1----4----|


C#|---------------------|---------------------|---------------------|---------------------|
G#|---------------------|---------------------|---------------------|---------------------|
 E|---------------------|---------------------|---------------------|---------------------|
 B|----------------3----|------1----4----5----|-4----1----3---------|---------------------|
F#|----------------1----|-0-------------------|-----------1---------|---------------------|
 B|-5----4----1---------|-0----1----4----5----|-4----1---------0----|-1----4----5----4----|


C#|---------------------|---------------------|---------------------|---------------------|
G#|---------------------|---------------------|---------------------|---------------------|
 E|----------------7----|-7----7--------------|---------------------|---------------------|
 B|------3--------------|-----------7----7----|-7-------------------|-3-------------------|
F#|------1----0---------|---------------------|------7--------------|-1-------------------|
 B|-1---------0---------|---------------------|---------------------|------0----1----4----|


C#|---------------------|---------------------|---------------------|---------------------|
G#|---------------------|---------------------|---------------------|---------------------|
 E|---------------------|---------------------|---------------------|---------------------|
 B|----------------3----|------1----4----5----|-4----1----3---------|---------------------|
F#|----------------1----|-0-------------------|-----------1---------|---------------------|
 B|-5----4----1---------|-0----1----4----5----|-4----1---------0----|-1----4----5----4----|


C#|---------------------|---------------------|---------------------|---------------------|
G#|---------------------|---------------------|---------------------|---------------------|
 E|---------------------|-0---------0---------|---------------------|---------------------|
 B|------3---------5----|------5--------------|---------------------|---------------------|
F#|------1----0---------|----------------5----|---------------------|---------------------|
 B|-1---------0---------|---------------------|-0----0----1---------|-0----0----0----1----|


C#|---------------------|---------------------|---------------------|---------------------|
G#|---------------------|---------------------|---------------------|---------------------|
 E|----------------0----|------0--------------|---------------------|---------------------|
 B|-----------5---------|-5-------------------|---------------------|---------------------|
F#|---------------------|-----------5---------|---------------------|---------------------|
 B|-0----0--------------|---------------------|-0----0----1---------|-0----0----0----1----|


C#|---------------------|---------------------|---------------------|---------------------|
G#|---------------------|---------------------|---------------------|---------------------|
 E|---------------------|---------------------|-2----3----2----0----|---------------------|
 B|---------------------|---------------------|---------------------|-1----0--------------|
F#|-5-------------------|-3----5----6---------|---------------------|---------------------|
 B|-5----4----5----7----|---------------------|---------------------|-----------1----0----|


C#|---------------------|---------------------|---------------------|---------------------|
G#|---------------------|---------------------|---------------------|---------------------|
 E|-3-------------------|-----------3---------|---------------------|---------------------|
 B|-3-------------------|-----------3---------|---------------------|---------------------|
F#|-1----0----0---------|-0----0----1----0----|-0----0----0----0----|-0-------------------|
 B|------0----0---------|-0----0---------0----|-0----0----0----0----|-0-------------------|


C#|---------------------|---------------------|---------------------|---------------------|
G#|---------------------|---------------------|---------------------|---------------------|
 E|---------------------|---------------------|---------------------|---------------------|
 B|---------------------|---------------------|---------------------|---------------------|
F#|-0----0----0----0----|------0----0----0----|-0----0----0----0----|-0----0---------0----|
 B|-0----0----0----0----|------0----0----0----|-0----0----0----0----|-0----0---------0----|


C#|---------------------|---------------------|---------------------|---------------------|
G#|---------------------|---------------------|---------------------|---------------------|
 E|---------------------|---------------------|---------------------|---------------------|
 B|---------------------|---------------------|---------------------|---------------------|
F#|------0----0----0----|-0----0---------0----|------0----0----0----|-0----0----0---------|
 B|------0----0----0----|-0----0---------0----|------0----0----0----|-0----0----0---------|


C#|---------------------|---------------------|---------------------|----------------10---|
G#|---------------------|---------------------|---------------------|---------------------|
 E|---------------------|---------------------|---------------------|---------------------|
 B|---------------------|---------------------|---------------------|---------------------|
F#|-0----0---------0----|-0----0---------0----|-0----0----0---------|-0----0--------------|
 B|-0----0---------0----|-0----0---------0----|-0----0----0---------|-0----0--------------|


C#|---------------------|---------------------|---------------------|---------------------|
G#|-11---10--------11---|-10------------------|---------------------|---------------------|
 E|---------------------|------10-------------|-3-------------------|------3--------------|
 B|-----------12--------|-----------12--------|-3-------------------|------3--------------|
F#|---------------------|---------------------|-1----0----0----0----|-0----1----0----0----|
 B|---------------------|---------------------|------0----0----0----|-0---------0----0----|


C#|---------------------|---------------------|---------------------|---------------------|
G#|---------------------|---------------------|---------------------|---------------------|
 E|---------------------|---------------------|---------------------|---------------------|
 B|---------------------|---------------------|---------------------|---------------------|
F#|-0----0----0----0----|------0----0----0----|-0---------0----0----|-0----0----0----0----|
 B|-0----0----0----0----|------0----0----0----|-0---------0----0----|-0----0----0----0----|


C#|---------------------|---------------------|---------------------|---------------------|
G#|---------------------|---------------------|---------------------|---------------------|
 E|---------------------|---------------------|---------------------|---------------------|
 B|---------------------|---------------------|---------------------|---------------------|
F#|-0----0----0---------|-0---------0----0----|-0----0----0---------|-0---------0----0----|
 B|-0----0----0---------|-0---------0----0----|-0----0----0---------|-0---------0----0----|


C#|---------------------|---------------------|---------------------|---------------------|
G#|---------------------|---------------------|---------------------|---------------------|
 E|---------------------|---------------------|---------------------|---------------------|
 B|---------------------|---------------------|---------------------|---------------------|
F#|-0----0----0----0----|------0----0---------|-0----0----0---------|-0----0----0----0----|
 B|-0----0----0----0----|------0----0---------|-0----0----0---------|-0----0----0----0----|


C#|---------------------|-10------------------|---------------------|---------------------|
G#|---------------------|------11---10--------|-11---10-------------|---------------------|
 E|---------------------|---------------------|-----------10--------|---------------------|
 B|---------------------|----------------12---|----------------12---|-8-------------------|
F#|------0----0---------|---------------------|---------------------|----------------5----|
 B|------0----0---------|---------------------|---------------------|------0----5---------|


C#|---------------------|
G#|---------------------|
 E|---------------------|
 B|-5----7----4---------|
F#|------5----5---------|
 B|---------------------|
comments
We did not receive enough feedback on this tab! Please rate:
print report bad tab
1 2 3 4 5
2 comments total.
0 reply
austinmandrell wrote on February 21 2010, 07:08 pm

wat song is this? is it off [id]?

0 reply
icedog41 wrote on March 5 2010, 10:24 pm

yes it is

I want to post or [tab]
guest
You may want to rate the tab now too:
select rating
Please do not post tabs as comments. Select "correction" instead!