Oops, an error
Loading. Please wait.

Big Machine Tab

ver4
ver4

Whole song

Interactive

More versions @911Tabs.com
2,697 views 6 this week
no commentswrite comment
1 2 3 4 5
excellent!
x 1
Autoscroll
+/-
esc
set tempo
stop
Contributor
Difficulty
intermediate
Hey! There's an official Ultimate Guitar app which is ideal
for learning songs when you're away from computer. Get the app
WARNING: You are trying to view
                                    content from Ultimate-Guitar.com
                                    in an unauthorized application,
                                    which is prohibited.

                                    Please use an official Ultimate
                                    Guitar Tabs application for iPhone,
                                    iPad or Android to access legitimate
                                    chords, guitar, bass, and drum tabs
                                    from Ultimate-Guitar.com database.

                                    Type "ultimate guitar tabs" in Apple
                                    App Store's or Android Market's
                                    search to find the application.
Gtr I (E A D G B E) - 'Slash'
Gtr II (E A D G B E) - 'Dave Kushner'
Gtr III (E A D G B E) - 'Lead'


 Intro          Verse
  Q=146
  N.C.(E)
 4/4
  Gtr I
  Wx10           Wx8
|-------------||--------|
|-------------||--------|
|-------------||--------|
|-------------||--------|
|-------------||--------|
|-------------||--------|


  D5         A5         E5
  W          W          W                 +W
|----------|----------|-----------------|--------|
|-3--------|----------|-----------------|--------|
|-2--------|-2--------|-----------------|--------|
|-0--------|-2--------|-2---------------|-(2)----|
|-0--------|-0--------|-2---------------|-(2)----|
|----------|----------|-0---------------|-(0)----|
|
| Gtr II
|                                          >
| W          W          E E Q    +H       +W
|----------|----------|---0-------------|--------|
|-3--------|----------|-----------------|--------|
|-2--------|-2--------|-----2b4r=(2)----|-(2)----|
|-0--------|-2--------|-----------------|--------|
|----------|-0--------|-----------------|--------|
|----------|----------|-0---------------|--------|


  D5         A5         G5                           A5
  W          W          W               +H.          Q
|----------|----------|---------------|-----------------||
|-3--------|----------|---------------|-----------------||
|-2--------|-2--------|-0-------------|-(0)----------2--||
|-0--------|-2--------|-0-------------|-(0)----------2--||
|-0--------|-0--------|---------------|--------------0--||
|----------|----------|-3-------------|-(3)-------------||
|
| W          W          Q  Q  E E E E    E  E E E Q  Q
|----------|----------|---------------|-----------------||
|-3--------|----------|---------------|-----------------||
|-2--------|-2--------|-0--0--0-0-0-0-|--0--0-0-0-0--2--||
|-0--------|-2--------|-0--0--0-0-0-0-|--0--0-0-0-0--2--||
|----------|-0--------|---------------|--------------0--||
|----------|----------|-3--3--3-3-3-3-|--3--3-3-3-3-----||


 Chorus
  E5                                  N.C.(D)          N.C.(G)
                                              ~~~             ~~~
  E E E E E E E E   E E E E E E E E   E E Q   H        E E Q  H
|-----------------|-----------------|----------------|----------------|
|-----------------|-----------------|----------------|----------------|
|-9-9---9-9-9---9-|-9-9---9-9-9-----|---------7b9----|--------7b9-----|
|-9-9---9-9-9---9-|-9-9---9-9-9-----|-2-1-0----------|----------------|
|-7-7---7-7-7---7-|-7-7---7-7-7-----|----------------|----------------|
|-0-0---0-0-0---0-|-0-0---0-0-0---0-|----------------|-5-4-3----------|
|
| E E E E E E E E   E E E E E E E E   E E H.           E E H       Q
|-----------------|-----------------|----------------|----------------|
|-----------------|-----------------|----------------|----------------|
|-----------------|-----------------|----------------|----------------|
|-----------------|-----------------|----------------|----------------|
|-2-2---2-2-2---2-|-2-2---2-2-2---2-|-7-6-5----------|----------------|
|-0-0---0-0-0---0-|-0-0---0-0-0---0-|----------------|-5-4-3-------5--|


                                       1.
    E5                                  N.C.(D)          N.C.(G)
                                                ~~~             ~~~
    E E E E E E E E   E E E E E E E E   E E Q   H        E E Q  H
||------------------|-----------------|----------------|------------------||
||o-----------------|-----------------|----------------|-----------------o||
||--9-9---9-9-9---9-|-9-9---9-9-9-----|---------7b9----|------------------||
||--9-9---9-9-9---9-|-9-9---9-9-9-----|-2-1-0----------|--------5b7-------||
||o-7-7---7-7-7---7-|-7-7---7-7-7-----|----------------|-----------------o||
||--0-0---0-0-0---0-|-0-0---0-0-0---0-|----------------|-5-4-3------------||
|
|   E E E E E E E E   E E E E E E E E   E E H.           E E H       Q
||------------------|-----------------|----------------|------------------||
||o-----------------|-----------------|----------------|-----------------o||
||------------------|-----------------|----------------|------------------||
||------------------|-----------------|----------------|------------------||
||o-2-2---2-2-2---2-|-2-2---2-2-2---2-|-7-6-5----------|-----------------o||
||--0-0---0-0-0---0-|-0-0---0-0-0---0-|----------------|-5-4-3-------5----||


  2.
  N.C.(D)           N.C.(G)           E5
          ~~~~             ~~~~
  E E Q   H         E E Q  H          E E E E E E E E   E E E E E E Q
|-----------------|-----------------|-----------------|-----------------||
|---------9b10----|--------9b10-----|-----------------|-----------------||
|-----------------|-----------------|-9-9---9-9-9---9-|-9-9---9-9-9-----||
|-2-1-0-----------|-----------------|-9-9---9-9-9---9-|-9-9---9-9-9-----||
|-----------------|-----------------|-7-7---7-7-7---7-|-7-7---7-7-7-----||
|-----------------|-5-4-3-----------|-0-0---0-0-0---0-|-0-0---0-0-0-----||
|
| E E H.            E E H        Q    E E E E E E E E   E E E E E E E E
|-----------------|-----------------|-----------------|-----------------||
|-----------------|-----------------|-----------------|-----------------||
|-----------------|-----------------|-----------------|-----------------||
|-----------------|-----------------|-----------------|-----------------||
|-7-6-5-----------|-----------------|-2-2---2-2-2---2-|-2-2---2-2-2---2-||
|-----------------|-5-4-3--------5--|-0-0---0-0-0---0-|-0-0---0-0-0---0-||


 Verse
  E5
  >
  W          +W           Wx6
|-0--------|-(0)--------|--------|
|-0--------|-(0)--------|--------|
|----------|------------|--------|
|-2--------|-(2)--------|--------|
|-2--------|-(2)--------|--------|
|-0--------|-(0)--------|--------|


  D5         A5         E5
  W          W          W                 +W
|----------|----------|-----------------|--------|
|-3--------|----------|-----------------|--------|
|-2--------|-2--------|-----------------|--------|
|-0--------|-2--------|-2---------------|-(2)----|
|-0--------|-0--------|-2---------------|-(2)----|
|----------|----------|-0---------------|-(0)----|
|
| Gtr II
|                                          >
| W          W          E E Q    +H       +W
|----------|----------|---0-------------|--------|
|-3--------|----------|-----------------|--------|
|-2--------|-2--------|-----2b4r=(2)----|-(2)----|
|-0--------|-2--------|-----------------|--------|
|----------|-0--------|-----------------|--------|
|----------|----------|-0---------------|--------|


  D5         A5         G5                              A5
  W          W          W                 +H.           Q
|----------|----------|-----------------|------------------||
|-3--------|----------|-----------------|------------------||
|-2--------|-2--------|-0---------------|-(0)-----------2--||
|-0--------|-2--------|-0---------------|-(0)-----------2--||
|-0--------|-0--------|-----------------|---------------0--||
|----------|----------|-3---------------|-(3)--------------||
|
|                       PM------------|
| W          W          E E E E E E E E    E  E E E E E Q
|----------|----------|-----------------|------------------||
|-3--------|----------|-----------------|------------------||
|-2--------|-2--------|-----------------|------------------||
|-0--------|-2--------|-----------------|---------------7--||
|----------|-0--------|-5-5-5-5-5-5-5-5-|--5--5-5-5-5-5-7--||
|----------|----------|-3-3-3-3-3-3-3-3-|--3--3-3-3-3-3-5--||


 Chorus
  E5                                  N.C.(D)          N.C.(G)
                                              ~~~             ~~~
  E E E E E E E E   E E E E E E E E   E E Q   H        E E Q  H
|-----------------|-----------------|----------------|-----------------|
|-----------------|-----------------|----------------|-----------------|
|-9-9---9-9-9---9-|-9-9---9-9-9-----|---------7b9----|-----------------|
|-9-9---9-9-9---9-|-9-9---9-9-9-----|-2-1-0----------|--------5b7------|
|-7-7---7-7-7---7-|-7-7---7-7-7-----|----------------|-----------------|
|-0-0---0-0-0---0-|-0-0---0-0-0---0-|----------------|-5-4-3-----------|
|
| E E E E E E E E   E E E E E E E E   E E H.           E E H        Q
|-----------------|-----------------|----------------|-----------------|
|-----------------|-----------------|----------------|-----------------|
|-----------------|-----------------|----------------|-----------------|
|-----------------|-----------------|----------------|-----------------|
|-2-2---2-2-2---2-|-2-2---2-2-2---2-|-7-6-5----------|-----------------|
|-0-0---0-0-0---0-|-0-0---0-0-0---0-|----------------|-5-4-3-------/5--|


                                       1.
    E5                                  N.C.(D)          N.C.(G)
                                                ~~~             ~~~
    E E E E E E E E   E E E E E E E E   E E Q   H        E E Q  H
||------------------|-----------------|----------------|-------------------||
||o-----------------|-----------------|----------------|------------------o||
||--9-9---9-9-9---9-|-9-9---9-9-9-----|---------7b9----|-------------------||
||--9-9---9-9-9---9-|-9-9---9-9-9-----|-2-1-0----------|--------5b7--------||
||o-7-7---7-7-7---7-|-7-7---7-7-7-----|----------------|------------------o||
||--0-0---0-0-0---0-|-0-0---0-0-0---0-|----------------|-5-4-3-------------||
|
|   E E E E E E E E   E E E E E E E E   E E H.           E E H        Q
||------------------|-----------------|----------------|-------------------||
||o-----------------|-----------------|----------------|------------------o||
||------------------|-----------------|----------------|-------------------||
||------------------|-----------------|----------------|-------------------||
||o-2-2---2-2-2---2-|-2-2---2-2-2---2-|-7-6-5----------|------------------o||
||--0-0---0-0-0---0-|-0-0---0-0-0---0-|----------------|-5-4-3-------/5----||


  2.
  N.C.(D)           N.C.(G)            E5
          ~~~~             ~~~~
  E E Q   H         E E Q  H           E E E E E E E E   E E E E E E E E
|-----------------|------------------|-----------------|-----------------||
|---------9b10----|--------9b10------|-----------------|-----------------||
|-----------------|------------------|-9-9---9-9-9---9-|-9-9---9-9-9-----||
|-2-1-0-----------|------------------|-9-9---9-9-9---9-|-9-9---9-9-9-----||
|-----------------|------------------|-7-7---7-7-7---7-|-7-7---7-7-7-----||
|-----------------|-5-4-3------------|-0-0---0-0-0---0-|-0-0---0-0-0---0-||
|
| E E H.            E E H         Q    E E E E E E E E   E E E E E E E E
|-----------------|------------------|-----------------|-----------------||
|-----------------|------------------|-----------------|-----------------||
|-----------------|------------------|-----------------|-----------------||
|-----------------|------------------|-----------------|-----------------||
|-7-6-5-----------|------------------|-2-2---2-2-2---2-|-2-2---2-2-2---2-||
|-----------------|-5-4-3--------/5--|-0-0---0-0-0---0-|-0-0---0-0-0---0-||


 Bridge
  C5                  E5                  D5                E5
  Gtr II
  W                   W                   W                 W
  |                   |                   |                 |
  /                   /                   /                 /

  Q  +E  E +E  E Q    Q  +E  E +E  E Q    Q  +E  E E E Q    Q  +E  E +E  E Q
|--------0-(0)------|-------------------|--------0-2---0--|--------0-(0)------|
|--------------1----|--------0-(0)------|-3--(3)----------|--------------0----|
|----------------0--|-------------------|-2--(2)-----2----|----------------1--|
|-2--(2)------------|-2--(2)-------2----|-0--(0)----------|-2--(2)------------|
|-3--(3)------------|-2--(2)---------2--|-----------------|-2--(2)------------|
|-------------------|-0--(0)------------|-----------------|-0--(0)------------|


  C5                  G5                A5
  W                   W                 H.          E E   W
  |                   |                 |           | |   |
  /                   /                 /           x x   /

  Q  +E  E +E  E Q    Q  E E +E  E Q    E E E E E E E E   E E E E E E Q
|--------0-(0)------|-----------------|-----------------|----------------|
|--------------1----|------0-(0)------|-3p2-2p0---------|----------------|
|----------------0--|------------0----|---------4p2-2p0-|-0--------------|
|-2--(2)------------|-0------------0--|-----------------|---4-2p0-0------|
|-3--(3)------------|-2--2------------|-----------------|-----------3-2--|
|-------------------|-3---------------|-----------------|----------------|


  C5                  E5                  D5                E5
  W                   W                   W                 W
  |                   |                   |                 |
  /                   /                   /                 /

  Q  +E  E +E  E Q    Q  +E  E +E  E Q    Q  +E  E E E Q    Q  +E  E +E  E Q
|--------0-(0)------|-------------------|--------0-2---0--|--------0-(0)------|
|--------------1----|--------0-(0)------|-3--(3)----------|--------------0----|
|----------------0--|-------------------|-2--(2)-----2----|----------------1--|
|-2--(2)------------|-2--(2)-------2----|-0--(0)----------|-2--(2)------------|
|-3--(3)------------|-2--(2)---------2--|-----------------|-2--(2)------------|
|-------------------|-0--(0)------------|-----------------|-0--(0)------------|


  C5                  G5                A5
  W                   W                 W                 W
  |                   |                 |                 |
  /                   /                 /                 /

  Q  +E  E +E  E Q    Q  E E +E  E Q    E E E E E E E E   E E E E E E Q
|--------0-(0)------|-----------------|-----------------|----------------||
|--------------1----|------0-(0)------|-3p2-2p0---------|----------------||
|----------------0--|------------0----|---------4p2-2p0-|-0--------------||
|-2--(2)------------|-0------------0--|-----------------|---4-2p0-0------||
|-3--(3)------------|-2--2------------|-----------------|-----------3-2--||
|-------------------|-3---------------|-----------------|----------------||


 Guitar Break
  E5
  Gtr III
   E  E  E  E  E  E  E  E    E  E  E  E  +Q     E  E
|-------------------------|--------------------------|
|-12-12-12-12-12-12-12-12-|-12-12-12-----------------|
|-15-15-15-15-15-15-15-15-|--------------------------|
|-14-14-14-14-14-14-14-14-|----------14-(14)---14-14-|
|-------------------------|--------------------------|
|-------------------------|--------------------------|
|
| Gtr II
|  E  E  E  E  E  E  E  E    E  E  E  E   E  E  E  E
|-------------------------|--------------------------|
|-------------------------|--------------------------|
|-------------------------|--------------------------|
|-------------------------|--------------------------|
|--2--2-----2--2--2-----2-|--2--2-----2---2--2-----2-|
|--0--0-----0--0--0-----0-|--0--0-----0---0--0-----0-|


   E  E  E  E  E  E  E  E    E  E  E  E  +Q     E  E
|-------------------------|--------------------------||
|-12-12-12-12-12-12-12-12-|-12-12-12-----------------||
|-15-15-15-15-15-15-15-15-|--------------------14s16-||
|-14-14-14-14-14-14-14-14-|----------14-(14)---------||
|-------------------------|--------------------------||
|-------------------------|--------------------------||
|
|  E  E  E  E  E  E  E  E    E  E  E  E   E  E  E  E
|-------------------------|--------------------------||
|-------------------------|--------------------------||
|-------------------------|--------------------------||
|-------------------------|--------------------------||
|--2--2-----2--2--2-----2-|--2--2-----2---2--2-----2-||
|--0--0-----0--0--0-----0-|--0--0-----0---0--0-----0-||


 Verse
  N.C.(E)
                                >
                      ~~~~                          ~~~~~
   E  E  +H.         +H.       +Q          +H      +H        Wx5
|-----------------|---------------------|------------------|--------|
|-17p15-(15)------|-(15)------(15)b17===|=(15)----(15)r----|--------|
|-----------------|---------------------|------------------|--------|
|-----------------|---------------------|------------------|--------|
|-----------------|---------------------|------------------|--------|
|-----------------|---------------------|------------------|--------|


  D5         A5         E5
  Gtr I
  W          W          W                 +W
|----------|----------|-----------------|--------|
|-3--------|----------|-----------------|--------|
|-2--------|-2--------|-----------------|--------|
|-0--------|-2--------|-2---------------|-(2)----|
|-0--------|-0--------|-2---------------|-(2)----|
|----------|----------|-0---------------|-(0)----|
|
| Gtr II
|                                          >
| W          W          E E Q    +H       +W
|----------|----------|---0-------------|--------|
|-3--------|----------|-----------------|--------|
|-2--------|-2--------|-----2b4r=(2)----|-(2)----|
|-0--------|-2--------|-----------------|--------|
|----------|-0--------|-----------------|--------|
|----------|----------|-0---------------|--------|


  D5         A5         G5                              A5
  W          W          W                 +H.           Q
|----------|----------|-----------------|------------------||
|-3--------|----------|-----------------|------------------||
|-2--------|-2--------|-0---------------|-(0)-----------2--||
|-0--------|-2--------|-0---------------|-(0)-----------2--||
|-0--------|-0--------|-----------------|---------------0--||
|----------|----------|-3---------------|-(3)--------------||
|
|                       PM------------|
| W          W          E E E E E E E E    E  E E E E E Q
|----------|----------|-----------------|------------------||
|-3--------|----------|-----------------|------------------||
|-2--------|-2--------|-----------------|------------------||
|-0--------|-2--------|-----------------|---------------7--||
|----------|-0--------|-5-5-5-5-5-5-5-5-|--5--5-5-5-5-5-7--||
|----------|----------|-3-3-3-3-3-3-3-3-|--3--3-3-3-3-3-5--||


 Chorus
  E5                                  N.C.(D)          N.C.(G)
                                              ~~~             ~~~
  E E E E E E E E   E E E E E E E E   E E Q   H        E E Q  H
|-----------------|-----------------|----------------|-----------------|
|-----------------|-----------------|----------------|-----------------|
|-9-9---9-9-9---9-|-9-9---9-9-9-----|---------7b9----|-----------------|
|-9-9---9-9-9---9-|-9-9---9-9-9-----|-2-1-0----------|--------5b7------|
|-7-7---7-7-7---7-|-7-7---7-7-7-----|----------------|-----------------|
|-0-0---0-0-0---0-|-0-0---0-0-0---0-|----------------|-5-4-3-----------|
|
| E E E E E E E E   E E E E E E E E   E E H.           E E H        Q
|-----------------|-----------------|----------------|-----------------|
|-----------------|-----------------|----------------|-----------------|
|-----------------|-----------------|----------------|-----------------|
|-----------------|-----------------|----------------|-----------------|
|-2-2---2-2-2---2-|-2-2---2-2-2---2-|-7-6-5----------|-----------------|
|-0-0---0-0-0---0-|-0-0---0-0-0---0-|----------------|-5-4-3-------/5--|


    E5
    E E E E E E E E   E E E E E E E E
||------------------|-----------------|
||o-----------------|-----------------|
||--9-9---9-9-9---9-|-9-9---9-9-9-----|
||--9-9---9-9-9---9-|-9-9---9-9-9-----|
||o-7-7---7-7-7---7-|-7-7---7-7-7-----|
||--0-0---0-0-0---0-|-0-0---0-0-0---0-|
|
|   E E E E E E E E   E E E E E E E E
||------------------|-----------------|
||o-----------------|-----------------|
||------------------|-----------------|
||------------------|-----------------|
||o-2-2---2-2-2---2-|-2-2---2-2-2---2-|
||--0-0---0-0-0---0-|-0-0---0-0-0---0-|


 1.
  N.C.(D)          N.C.(G)
          ~~~             ~~~~
  E E Q   H        E E Q  Q     +S  +E.
|----------------|------------------------||
|----------------|-----------------------o||
|---------7b9----|------------------------||
|-2-1-0----------|--------5b7===(5)r(5)---||
|----------------|-----------------------o||
|----------------|-5-4-3------------------||
|
| E E H.           E E H         Q
|----------------|------------------------||
|----------------|-----------------------o||
|----------------|------------------------||
|----------------|------------------------||
|-7-6-5----------|-----------------------o||
|----------------|-5-4-3--------/5--------||


  2.
  N.C.(D)           N.C.(G)            E5
          ~~~~             ~~~~
  E E Q   H         E E Q  H           E E E E E E E E   E E E E E E Q
|-----------------|------------------|-----------------|----------------||
|---------9b10----|--------9b10------|-----------------|----------------||
|-----------------|------------------|-9-9---9-9-9---9-|-9-9---9-9-9----||
|-2-1-0-----------|------------------|-9-9---9-9-9---9-|-9-9---9-9-9----||
|-----------------|------------------|-7-7---7-7-7---7-|-7-7---7-7-7----||
|-----------------|-5-4-3------------|-0-0---0-0-0---0-|-0-0---0-0-0----||
|
| E E H.            E E H         Q    E E E E E E E E   E E E E E E Q
|-----------------|------------------|-----------------|----------------||
|-----------------|------------------|-----------------|----------------||
|-----------------|------------------|-----------------|----------------||
|-----------------|------------------|-----------------|----------------||
|-7-6-5-----------|------------------|-2-2---2-2-2---2-|-2-2---2-2-2----||
|-----------------|-5-4-3--------/5--|-0-0---0-0-0---0-|-0-0---0-0-0----||


 Breakdown
  N.C.(E)
                <
  Wx7           H.                   Q
|------------|--------------------------------||
|------------|--------------------------------||
|------------|--9-----------------------------||
|------------|--------------------------------||
|------------|--------------------------------||
|------------|---------------------/15\-------||
|
|               <
|               ~~~~~~~~~~~~~~~~~~~
| Wx7           H      +E   +Q           +E
|------------|-12-----(12)-(12)b17------(12)\-||
|------------|--------------------------------||
|------------|--------------------------------||
|------------|--------------------------------||
|------------|--------------------------------||
|------------|--------------------------------||


 Guitar Break
  E5
  Gtr II
   E  E  E  E  E  E  E  E    E  E  E  E   E  E  E  E
   |  |     |  |  |     |    |  |     |   |  |     |
   /  /     /  /  /     /    /  /     /   /  /     /

  Gtr III
   E  E  E  E  E  E  E  E    E  E  E  E  +Q     E  E
|-------------------------|--------------------------|
|-12-12-12-12-12-12-12-12-|-12-12-12-----------------|
|-15-15-15-15-15-15-15-15-|--------------------------|
|-14-14-14-14-14-14-14-14-|----------14-(14)---14-14-|
|-------------------------|--------------------------|
|-------------------------|--------------------------|


   E  E  E  E  E  E  E  E    E  E  E  E   E  E   E E
   |  |     |  |  |     |    |  |     |   |  |     |
   /  /     /  /  /     /    /  /     /   /  /     /

   E  E  E  E  E  E  E  E    E  E  E  E  +Q      Q
|-------------------------|--------------------------|
|-12-12-12-12-12-12-12-12-|-12-12-12-----------------|
|-15-15-15-15-15-15-15-15-|--------------------/12---|
|-14-14-14-14-14-14-14-14-|----------14-(14)---------|
|-------------------------|--------------------------|
|-------------------------|--------------------------|


  G5                            A5
  Gtrs I, II
    Q    +E   E  +E   E  +Q      Q   +E   E  +E   E  +Q
    |     |   |   |   |   |      |    |   |   |   |   |
    /     /   /   /   /   /      /    /   /   /   /   /

    Q    +E   E  +E   E  +Q      Q   +E   E  +E   E  +Q
|-----------------------------|---------------------------|
|--15---(15)-15-(15)-15-(15)--|-14--(14)-14-(14)-14-(14)--|
|-(12)--(12)-12-(12)-12-(12)--|-12--(12)-12-(12)-12-(12)--|
|-----------------------------|---------------------------|
|-----------------------------|---------------------------|
|-----------------------------|---------------------------|


  C5                          D5
   Q   +E   E  +E   E  +Q      Q       +E  E +E E +Q
   |    |   |   |   |   |      |        |  |  | |  |
   /    /   /   /   /   /      /        /  /  / /  /

   Q   +E   E  +E   E  +Q      E   E   +H.
|---------------------------|-------------------------||
|-13--(13)-13-(13)-13-(13)--|-----15--(15)------------||
|-12--(12)-12-(12)-12-(12)--|-12-(12)-(12)------------||
|---------------------------|-------------------------||
|---------------------------|-------------------------||
|---------------------------|-------------------------||


 Out-Chorus
  E5
   TP                     TP
   W                      H.            +Q
|----------------------|------------------------|
|-15b17================|=15------------(15)r\---|
|----------------------|------------------------|
|----------------------|------------------------|
|----------------------|------------------------|
|----------------------|------------------------|
|
| Gtr I
|  E     E E E E E E E    E  E E E E E   E    E
|----------------------|------------------------|
|----------------------|------------------------|
|--9-----9---9-9-9---9-|--9--9---9-9-9----------|
|--9-----9---9-9-9---9-|--9--9---9-9-9----------|
|--7-----7---7-7-7---7-|--7--7---7-7-7----------|
|--0-----0---0-0-0---0-|--0--0---0-0-0--------0-|
|
| Gtr II
|  E     E E E E E E E    E  E E E E E   E    E
|----------------------|------------------------|
|----------------------|------------------------|
|----------------------|------------------------|
|----------------------|------------------------|
|--2-----2---2-2-2---2-|--2--2---2-2-2--------2-|
|--0-----0---0-0-0---0-|--0--0---0-0-0--------0-|


  N.C.(D)           N.C.(G)
  W                 W
|-----------------|------------------|
|-----------------|------------------|
|-----------------|------------------|
|-----------------|------------------|
|-----------------|------------------|
|-----------------|------------------|
|
|         ~~~~             ~~~~
| E E Q   H         E E Q  H
|-----------------|------------------|
|---------9b10----|--------9b10------|
|-----------------|------------------|
|-2-1-0-----------|------------------|
|-----------------|------------------|
|-----------------|-5-4-3------------|
|
| E E H.            E E H         Q
|-----------------|------------------|
|-----------------|------------------|
|-----------------|------------------|
|-----------------|------------------|
|-7-6-5-----------|------------------|
|-----------------|-5-4-3--------/5--|


  E5
  Gtr I
  E E E E E E E E   E E E E E E E E   E E E E E E E E   E E E E E E E E
|-----------------|-----------------|-----------------|-----------------|
|-----------------|-----------------|-----------------|-----------------|
|-9-9---9-9-9---9-|-9-9---9-9-9---9-|-9-9---9-9-9---9-|-9-9---9-9-9---9-|
|-9-9---9-9-9---9-|-9-9---9-9-9---9-|-9-9---9-9-9---9-|-9-9---9-9-9---9-|
|-7-7---7-7-7---7-|-7-7---7-7-7---7-|-7-7---7-7-7---7-|-7-7---7-7-7---7-|
|-0-0---0-0-0---0-|-0-0---0-0-0---0-|-0-0---0-0-0---0-|-0-0---0-0-0---0-|
|
| Gtr II
| E E E E E E E E   E E E E E E E E   E E E E E E E E   E E E E E E E E
|-----------------|-----------------|-----------------|-----------------|
|-----------------|-----------------|-----------------|-----------------|
|-----------------|-----------------|-----------------|-----------------|
|-----------------|-----------------|-----------------|-----------------|
|-2-2---2-2-2---2-|-2-2---2-2-2---2-|-2-2---2-2-2---2-|-2-2---2-2-2---2-|
|-0-0---0-0-0---0-|-0-0---0-0-0---0-|-0-0---0-0-0---0-|-0-0---0-0-0---0-|


    E5
    E E E E E E E E   E E E E E E E E
||------------------|------------------||
||o-----------------|-----------------o||
||--9-9---7-7-7---9-|-9-9---7-7-7---9--||
||--9-9---7-7-7---9-|-9-9---7-7-7---9--||
||o-7-7-----------7-|-7-7-----------7-o||
||--0-0-----------0-|-0-0-----------0--||
|
|   E E E E E E E E   E E E E E E E E
||------------------|------------------||
||o-----------------|-----------------o||
||------------------|------------------||
||------------------|------------------||
||o-2-2---2-2-2---2-|-2-2---2-2-2---2-o||
||--0-0---0-0-0---0-|-0-0---0-0-0---0--||


  N.C.(D)                 N.C.(G)
          ~~~~                   ~~~~
  E E Q   Q     +S  +E.   E E Q  Q     +S  +E.
|-----------------------|-----------------------||
|-----------------------|-----------------------||
|---------7b9===(7)r(7)-|-----------------------||
|-2-1-0-----------------|--------5b7===(5)r(5)--||
|-----------------------|-----------------------||
|-----------------------|-5-4-3-----------------||
|
| E E H.                  E E H         Q
|-----------------------|-----------------------||
|-----------------------|-----------------------||
|-----------------------|-----------------------||
|-----------------------|-----------------------||
|-7-6-5-----------------|-----------------------||
|-----------------------|-5-4-3--------/5-------||


 Outro
  E5
  E E Q  E E Q    E E Q  E E Q    W          +W
|---------------|---------------|----------|--------|
|---------------|---------------|----------|--------|
|-9-9----9-9----|-9-9----9-9----|-9--------|-(9)----|
|-9-9----9-9----|-9-9----9-9----|-9--------|-(9)----|
|-7-7----7-7----|-7-7----7-7----|-7--------|-(7)----|
|-0-0----0-0----|-0-0----0-0----|-0--------|-(0)----|
|
| E E Q  E E Q    E E Q  E E Q    W          +W
|---------------|---------------|----------|--------|
|---------------|---------------|----------|--------|
|---------------|---------------|----------|--------|
|---------------|---------------|----------|--------|
|-2-2----2-2----|-2-2----2-2----|-2--------|-(2)----|
|-0-0----0-0----|-0-0----0-0----|-0--------|-(0)----|


  E5
                  >
  +W             +W           +W           +W
|--------------|------------|------------|--------*|
|--------------|------------|------------|--------*|
|-(9)----------|-(9)--------|-(9)--------|-(9)----*|
|-(9)----------|-(9)--------|-(9)--------|-(9)----*|
|-(7)----------|-(7)--------|-(7)--------|-(7)----*|
|-(0)----------|-(0)--------|-(0)--------|-(0)----*|
|
|                 >
|  \0.5
| +W             +W           +W           +W
|--------------|------------|------------|--------*|
|--------------|------------|------------|--------*|
|--------------|------------|------------|--------*|
|--------------|------------|------------|--------*|
|-(2)----------|-(2)--------|-(2)--------|-(2)----*|
|-(0)----------|-(0)--------|-(0)--------|-(0)----*|




--------------------------------------------------------------------------------


Duration Legend
---------------
W - whole; H - half; Q - quarter; E - 8th; S - 16th; T - 32nd; X - 64th; a - acciaccatura
+ - note tied to previous; . - note dotted; .. - note double dotted
Uncapitalized letters represent notes that are staccato (1/2 duration)
Irregular groupings are notated above the duration line
Duration letters will always appear directly above the note/fret number it represents the
duration for.  Duration letters with no fret number below them represent rests.  Multi-
bar rests are notated in the form Wxn, where n is the number of bars to rest for.  Low
melody durations appear below the staff

Tablature Legend
----------------
 h   - hammer-on
 p   - pull-off
 b   - bend
 pb  - pre-bend
 r   - bend release (if no number after the r, then release immediately)
 /\  - slide into or out of (from/to "nowhere")
 s   - legato slide
 S   - shift slide
 - natural harmonic
[n]  - artificial harmonic
n(n) - tapped harmonic
 ~   - vibrato
 tr  - trill
 T   - tap
 TP  - trem. picking
 PM  - palm muting
\n/  - tremolo bar dip; n = amount to dip
 \n  - tremolo bar down
 n/  - tremolo bar up
/n\  - tremolo bar inverted dip
 =   - hold bend; also acts as connecting device for hammers/pulls
 <> - volume swell (louder/softer)
 x   - on rhythm slash represents muted slash
 o   - on rhythm slash represents single note slash

Misc Legend
-----------
 |  - bar
||  - double bar
||o - repeat start
o|| - repeat end
*|  - double bar (ending)
 :  - bar (freetime)
 $  - Segno
 &  - Coda
Tempo markers -  = BPM(8/16=s8/s16), where s8 = swing 8ths, s16 = swing 16ths


comments
We did not receive enough feedback on this tab! Please rate:
print report bad tab
1 2 3 4 5
I want to post or [tab]
guest
You may want to rate the tab now too:
select rating
Please do not post tabs as comments. Select "correction" instead!