Oops, an error
Loading. Please wait.

Contraband Bass Tab

ver1
ver1

Album

More versions @911Tabs.com
775 views 1 this week
4 commentsread comments
1 2 3 4 5
worth learning
x 5
Autoscroll
+/-
esc
set tempo
stop
Contributor
Hey! There's an official Ultimate Guitar app which is ideal
for learning songs when you're away from computer. Get the app
WARNING: You are trying to view
                                    content from Ultimate-Guitar.com
                                    in an unauthorized application,
                                    which is prohibited.

                                    Please use an official Ultimate
                                    Guitar Tabs application for iPhone,
                                    iPad or Android to access legitimate
                                    chords, guitar, bass, and drum tabs
                                    from Ultimate-Guitar.com database.

                                    Type "ultimate guitar tabs" in Apple
                                    App Store's or Android Market's
                                    search to find the application.
Band- Velvet Revolver
Album- Contraband

1.SUCKER TRAIN BLUES

Intro :  (This intro is very fast and it goes with the 2 guitar Repeat it many times)


G|--9-----9999999999999999999----------12--0h9-------|
D|---------------------------------------------------|        X8
A|---------------------------------------------------|
E|---------------------------------------------------|


Riff A

G|-------------------------------|--------------------------------| X2
D|-------------------------------|--------------------------------|
A|-------------------------------|--------------------------------|
E|-3-3---3---3--3---3---3------3-|-0-0---0---0--0----0---0------0-|


Verse

G|-------------------------|
D|-------------------------|  X8
A|--7-7-7-7-7-7-7-7-7----7-|
E|-------------------------|


Pre-Chorus


G|-------------------------------------|
D|-------------------------------------|    X2
A|-------------------------------------|
E|-5-555555-3-333333-7-77777777777777--|


Chorus (same as Riff A)

G|-------------------------------|--------------------------------| X4
D|-------------------------------|--------------------------------|
A|-------------------------------|--------------------------------|
E|--3----33333333333333333333----|-0-0000000000000000000000-------|

2 verse

G|-------------------------|
D|-------------------------|  X8
A|--7-7-7-7-7-7-7-7-7----7-|
E|-------------------------|

Pre-Chorus

G|-------------------------------------|
D|-------------------------------------|    X2
A|-------------------------------------|
E|-5-555555-3-333333-7-77777777777777--|


Chorus

G|-------------------------------|--------------------------------| X4
D|-------------------------------|--------------------------------|
A|-------------------------------|--------------------------------|
E|--3----33333333333333333333----|-0-0000000000000000000000-------|


Post Chorus     \"IT`s all over me now\"


G|---------------------------------------------------------------| X3
D|-------------777777777777777-----5555555555555/99999999999999--|
A|---------------------------------------------------------------|
E|---------------------------------------------------------------|

Break Before Solo

G|---------------------------------------------------------------|
D|--------777777777777777----------555555555555------------------|
A|---------------------------------------------------------------|
E|--------------------------------------------------00000000000--|


During Guitar solo : (this solo was recorderd with a strat for the vibrato)


G|---------------------------------------------------------------| X3
D|---------------------------------------------------------------|
A|---------------------------------------------------------------|
E|------000000000000000000000----------333333333333333333333-----|


G|---------------------------------------------------------------| X3
D|---------------------------------------------------------------|
A|---------------------------------------------------------------|
E|--3/555555----3333333---------777777777777777---7-7------------|


DRUM SOLO

Chorus and outro

G|-------------------------------|--------------------------------| X6
D|-------------------------------|--------------------------------|
A|-------------------------------|--------------------------------|
E|--3----33333333333333333333----|-0-0000000000000000000000-------|


G|----------|
D|----------|
A|----------|
E|---3---0~-|


~ Let it ring

2.DO IT FOR THE KIDS

Intro:
G-------------------------------------------------------------|
D-------------------------------------------------------------|
A-------------------------------------------------------------|
E--7-7-5-6-7-7-5-6-7-7-7-8-10-10-8----------------------------|
		(repeat 12x)

Chorus
G-------------------------------------------------------------|
D-------------------------------------------------------------|
A--6(16x)-----------9(16x)-----------6(11x)--4-2--------------|
E------------6(16x)-----------6(16x)--------------------------|


G-------------------------------------------------------------|
D-------------------------------------------------------------|
A-------------------------------------------------------------|
E--7-7-5-6-7-7-5-6-7-7-7-8-10-10-8----------------------------|
		(repeat 10x)

Chorus
G-------------------------------------------------------------|
D-------------------------------------------------------------|
A--6(16x)--------9(16x)--------6(16x)--------9(16X)-----------|
E---------7(16x)--------7(16x)--------7(16x)--------7(16x)----|


G-------------------------------------------------------------|
D-------------------------------------------------------------|
A--9(8x)--4(8x)-----------------------------------------------|
E--------------------8(8x)--3-3-3-3-7-7-7-7-------------------|


G-------------------------------------------------------------|
D-------------------------------------------------------------|
A-------------------------------------------------------------|
E--10-8--7-7-5-6-7-7-5-6-7-7-7-8-10-10-8----------------------|
		(repeat 7x)


Chorus
G-------------------------------------------------------------|
D-------------------------------------------------------------|
A--6(16x)-----------9(16x)------------------------------------|
E------------7(16x)-----------7(16x)--------------------------|
		(repeat3x)

G-------------------------------------------------------------|
D-------------------------------------------------------------|
A--6(16x)-----------9(16X)------------------------------------|
E------------7(16x)-----------7(12x)--0hold-------------------|

3.BIG MACHINE

Don't Know

4.ILLEGAL I SONG

Don't Know

5.SPECTACLE

Intro:
G|--------------------------------------------|
D|--------------------------------------------|
A|3-0-0-3-0-0-3-0-3-0-0-3-0-0-3-0-------------|
E|--------------------------------------------|

Verse:
G|--------------------------------------------|
D|--------------------------------------------|
A|3-0-0-3-0-0-3-0-3-0-0-3-0-0-3-0-------------|
E|--------------------------------------------|

G|--------------------------------------------|
D|--------------------------------------------|
A|--------------------------------------------|
E|3-3-3-3-3-3-3-3--1-1-1-1-1-1-1-1------------|

Chorus:
G|--------------------------------------------|
D|--------------------------------------------|
A|5555555555555555----------------------------|
E|----------------5555555555555555------------|

G|--------------------------------------------|
D|--------------------------------------------|
A|----------------3333333333333333------------|
E|1111111111111111----------------------------|


Bridge:
G|--------------------------------------------|
D|--------------------------------------------|
A|--------------------------------------------|
E|11111111-00000000-11111131-00000000---------|

G|--------------------------------------------|
D|--------------------------------------------|
A|--------33333333-55555555-77777777----------|
E|11111111------------------------------------|

Behind solo:
G|--------------------------------------------|
D|--------------------------------------------|
A|3-0-0-3-0-0-3-0-3-0-0-3-0-0-3-0-------------|
E|--------------------------------------------|
X4

G|--------------------------------------------|
D|--------------------------------------------|
A|----------------3333333333333333------------|
E|1111111111111111----------------------------|


G|--------------------------------------------|
D|--------------------------------------------|
A|5555555555555555-7777777777777777-0---------|
E|--------------------------------------------|

Let the 0 ring

6.FALL TO PIECES

Intro  (0:00)
Gb-----------------------17--16~--14~--12~--|
Db-14p12~--14p12~---------------------------|
Ab------------------------------------------|
Eb------------------------------------------|

Gb--------------------------17--16~--14~--12--|
Db-14p12~--14p12~------/17--------------------|
Ab--------------------------------------------|
Eb--------------------------------------------|

1st Verse  (0:14)
Gb-----------------------17--16~--14~--12~--|
Db-14p12~--14p12~---------------------------|
Ab------------------------------------------|
Eb------------------------------------------|

Gb--------------------------17--16~--14~--12~--|
Db-14p12~--14p12~------/17---------------------|
Ab---------------------------------------------|
Eb---------------------------------------------|

Gb-----------------------/17--16~--14~-12~-------------------------|
Db-14p12~--14p12~---------------------------14p13~--14p13~----/17--|
Ab-----------------------------------------------------------------|
Eb-----------------------------------------------------------------|

Gb-17--16~--14~-12-------------|
Db------------------14p12------|
Ab------------------------14\--|
Eb-----------------------------|

1st Pre-Chorus  (0:43)
Gb------------------------------------------------------------------------------------|
Db------------------------------------------------------------------------------------|
Ab-12-12-12-12-12-0/12-12-12-12-12-12-12-12-12-0--10-10-10-10-9-0-5--5-5--5h7-5-3-----|
Eb--------------------------------------------------------------------------------5\--|

Gb---------------------------------------------------------------------------------------|
Db---------------------------------------------------------------------------------------|
Ab-/12-12-12-12-12-0/12-12-12-12-12-12-12-12-12-0--10-10-10-10-9-0-12--12-10-------------|
Eb---------------------------------------------------------------------------12-11-10\3--|

(0:58)
Gb----------------------------------------------------|
Db----------------------------------------------------|
Ab-5--5-5-0-5~-5-5--5-5--0--3--3----------2-3-2--3-0--|
Eb-------------------------------0h2-3~-3-------------|

Gb--------------------------------------------|
Db--------------------7-9-7-----------3-4-5~--|
Ab-5--5-5-0-5--5-5-/9-------9-0--3--0---------|
Eb--------------------------------------------|

2nd Verse  (1:12)
Gb-------------------------------------------------|
Db-------------------------------------------------|
Ab-5---5~----3----------5----5~----3------------3--|
Eb----------------3~--------------------0-2-3~-----|

Gb-----------------------------------------------------------|
Db-----------------------------------------------------------|
Ab-5----5~----3--------3----5----5~----3-----------2-3-2-3/--|
Eb-----------------3~---------------------0-2-3~-3-----------|

2nd Pre-Chorus  (1:41)
Gb------------------------------------------------------------------------------------|
Db------------------------------------------------------------------------------------|
Ab-12-12-12-12-12-0/12-12-12-12-12-12-12-12-12-0--10-10-10-10-9-0-5--5-5--5h7-5-3-----|
Eb--------------------------------------------------------------------------------5\--|

Gb---------------------------------------------------------------------------------------|
Db---------------------------------------------------------------------------------------|
Ab-/12-12-12-12-12-0/12-12-12-12-12-12-12-12-12-0--10-10-10-10-9-0-12--12-10-------------|
Eb---------------------------------------------------------------------------12-11-10\3--|

1st Chorus  (1:56)
Gb----------------------------------------------------|
Db----------------------------------------------------|  X3
Ab-5--5-5-0-5~-5-5--5-5--0--3--3----------2-3-2--3-0--|
Eb-------------------------------0h2-3~-3-------------|

Gb---------------------------------------------|
Db---------------------------------------------|
Ab-5--5-5-0-5~-5-5--5-5-5-0--3--3--------------|
Eb--------------------------------0-2-3~-3-3~--|

Bridge  (2:24)
Gb----------------------------------------------------------------|
Db----------------------------------------------------------------|
Ab-2-2-2-2-2-2-2-2-2-2-2-2-------------------------------------5--|
Eb-------------------------0-0-0-0-3-3-3-3-3-3-3-3-3-3-3-3-3-0----|

Gb------------------------------------------------------------------|
Db------------------------------------------------------------------|
Ab-2-2-2-2-2-2-2-2-2-2-2-2-5-5-5-5-0-0-0-0-0-0-0-0-0-0-0-0-0-0------|
Eb-------------------------------------------------------------0-2--|

Gb------------------------------------------------------------------------------|
Db------------------------------------------------------------------------------|
Ab---------------------------------8-9-10-10-10-10-10-10-10-10-10-10-10-8-------|
Eb-3-3-3-3-3-3-3-3-3-3-3-3-3-3-3-3/---------------------------------------10-8--|

Guitar Solo  (2:53)
Gb----------------------------------------------------|
Db----------------------------------------------------|
Ab-5--5-5-0-5~-5-5--5-5--0--3--3----------2-3-2--3-0--|
Eb-------------------------------0h2-3~-3-------------|

Gb--------------------------------------------------------------|
Db--------------10-11-12-10-------------------------------------|
Ab-5---5-5-0-5~/------------12-10-0--3---3----------2-3-2--3-0--|
Eb-----------------------------------------0-2-3~-3-------------|

Gb------------------------------------------------------|
Db------------------------------------------------------|
Ab-5---5-5-0-5~-5-5--5-5--0--3--3-----------------------|
Eb--------------------------------0-2-3~-3-3-3--3-3-3\--|

Gb----------|
Db----------|  X4
Ab----------|
Eb-0-0-0-0--|

Gb------------------------------|
Db------------------------------|
Ab------------------------------|
Eb-3-3-3-3-3-3-5-5-5-5-5-5-5-3--|

3rd Chorus  (3:22)
Gb----------------------------------------------------|
Db----------------------------------------------------|  X3
Ab-5--5-5-0-5~-5-5--5-5--0--3--3----------2-3-2--3-0--|
Eb-------------------------------0h2-3~-3-------------|

Gb------------------------------------------------------------------------------|
Db---------------10-11-12-12-12-0--10-10-10-10-10-0-----------------------------|
Ab-5--5-5-0-5~-5/-----------------------------------10-10-10-10-10-0-10-8----8--|
Eb------------------------------------------------------------------------10----|

Outro Chorus  (3:51)
Gb----------------------------------------------------|
Db----------------------------------------------------|  X3
Ab-5--5-5-0-5~-5-5--5-5--0--3--3----------2-3-2--3-0--|
Eb-------------------------------0h2-3~-3-------------|

Gb------------------------------------------|
Db------------------------------------------|
Ab-5---5-5-0-5~-5-5--5-5-5-0--3--3----------|
Eb---------------------------------0-2-3~~--|

7.HEADSPACE

Don't Know

8.SUPERHUMAN

Don't Know

9.SET ME FREE

G---------|-------------------------------|
D---------|-------------------------------| Intro/Verse/Pre-chorus
A---------|----3344--------654------------|
E-/555555>|-55------334455-----55---------|


G-----------------------------------|--------------------------------|
D-----------------------------------|--------------------------------| Chorus
A-5-555--------------10-10108-10-8-5|-5-5555---------------10-101010-|
E-------6-6666-8-888----------------|--------6-6666-8-8888-----------|


G--------------------------------------------------------|
D--------------------------------------------------------| Bridge
A--------------------------------------------------------|
E-2-22222-1-111111-4-444444-2-22222-1-111111-5-555555-5\-|


G----------------------------|
D----------------------------| 3rd Chorus
A-0/1212121212-11----12121212|
------------------12---------|

G----------------------------------|    ----------|
D----------------------------------| X3-----------| Outro
A----------------------------------|    ------0~--|
E-11-22-11-22-4444-11-22-11-22-5555|    ------5~--|

10.YOU GOT NO RIGHT

Don't Know

11.SLITHER

Intro part 1
|-----------------|-----------------|
|o----------------|----------------o|
|o--------8-8-8---|---------8-8-8-8o|
|-0-0-0-0-------0-|-0-0-0-0---------|

Intro part 2
|-----------------|-----------------|
|-----------------|-----------------|
|---------8-8-8---|-----------------|
|-0-0-0-0-------0-|-----------------|

Main Riff
|-----------------|-----------------| x4
|o----------------|----------------o|
|o----------------|----------------o|
|-0-3-4-0-6-7-0-10|-0-6-7-0-5-0-3-4-|

1st and 2nd Verse
|-----------------|-----------------| x8
|o----------------|----------------o|
|o----------------|----------------o|
|-0-3-4-0-6-7-0-10|-0-6-7-0-5-0-3-4-|

Chorus
|-----------------|-----------------|-----------------|-----------------|
|-----------------|-----------------|-----------------|-----------------|
|-----------------|---------------0-|-3-----3-----3-3-|---333-3-3-5-3-0-|
|-0-----0-----0-0-|---0-0-----0-0---|-----------------|-----------------|

|-----------------|-----------------|-----------------|-----------------|
|-----------------|-----------------|-----------------|-----------------|
|-2-----2-----2-2-|---2-2-223-3-3-3-|-----------------|-------------0---|
|-----------------|-----------------|-0-----0-----0-0-|---0-0---0-0-----|

Solo
|-----------------|-----------------|-----------------|-----------------|
|-----------------|-----------------|-----------------|-----------------|
|-5-5-5---5-5-5-5-|---5-5---5-5-0-2-|-3---3---3-3-3-3-|---3-3---3-5-3-0-|
|-----------------|-----------------|-----------------|-----------------|

|-----------------|-----------------|-----------------|-----------------|
|-----------------|-----------------|-----------------|-----------------|
|-2-2-2---2-2-2-2-|-2-2---2-3-3-333-|-----------------|---5-3-0-5-3-2---|
|-----------------|-----------------|-0-0-0---0-0-0---|-----------------|

|-----------------|-----------------|-----------------|-----------------|
|-----------------|-----------------|-----------------|-------023-2-0---|
|-----------------|---------------2-|-3---3-3---3-3---|-3-3-3---------3-|
|-0---0-0---0-0-0-|---0-0-0---0-0---|-----------------|-----------------|

|-----------------|-----------------|-----------------|-----------------|
|-----------------|-----------------|-----------------|-----------------|
|-2---2---2-2-2-2-|---2-2---3-3-333-|-5---5---5-5-----|---8-8---10101212|
|-----------------|-----------------|-------------0-0-|-0---------------|

3rd Verse
|-----------------|-----------------| x3
|o----------------|----------------o|
|o----------------|----------------o|
|-0-3-4-0-6-7-0-10|-0-6-7-0-5-0-3-4-|

|--------------------|-----------------|
|--------------------|-----------------|
|--------------------|-----------------|
|-0-10-12-0-9-10-0-7-|-0-6-7-0-5-0-3-4-|

Outro
|-----------------|-----------------| x3
|o----------------|----------------o|
|o----------------|----------------o|
|-0-3-4-0-6-7-0-10|-0-6-7-0-5-0-3-4-|

|--------------------|-----------------|-----------------|
|--------------------|-----------------|-----------------|
|--------------------|-----------------|-----------------|
|-0-10-12-0-9-10-0-7-|-0-6-7-0-5-0-3-4-|-0---------------|

12.DIRTY LITTLE THING

Intro : Only bass (this intro goes also when the 2 guitars starts)

G|----999999999999999999999999999-----|
D|------------------------------------|
A|------------------------------------|
E|------------------------------------|


Verse

G|------------------------------------|
D|------------------------------------|       X4
A|------------------------------------|
E|-0--3--0--5--0--6--0--5--3/5---3----|

Pre Chorus

G|------------------------------------|
D|------------------------------------|       X2
A|------------------------------------|
E|-5--5---55---5---5---5----5---5---5-|


2 Verse

G|------------------------------------|
D|------------------------------------|       X4
A|------------------------------------|
E|-0--3--0--5--0--6--0--5--3/5---3----|


Pre Chorus


G|------------------------------------|
D|------------------------------------|
A|-3333333333-------------------------|
E|--------------55555555555-----------|


Chorus \"get away from the life you are living\"

|-----------------------------------------------|
|-----------------------------------------------|
|--------3----------5--------3---2--------------|
|-0------------0---------0----------0--5--0--3--|

2 verse

G|------------------------------------|
D|------------------------------------|       X4
A|------------------------------------|
E|-0--3--0--5--0--6--0--5--3/5---3----|


Pre Chorus

G|------------------------------------|
D|------------------------------------|       X2
A|------------------------------------|
E|-5--5---55---5---5---5----5---5---5-|


2 Verse

G|------------------------------------|
D|------------------------------------|       X4
A|------------------------------------|
E|-0--3--0--5--0--6--0--5--3/5---3----|


Pre Chorus


G|------------------------------------|
D|------------------------------------|
A|-3333333333-------------------------|
E|--------------55555555555-----------|


Chorus \"get away from the life you are living\"

G|-----------------------------------------------|
D|-----------------------------------------------|
A|--------3----------5--------3---2--------------|
E|-0------------0---------0----------0--5--0--3--|

During Guitar solo : (This part is wrong more later i will correct it)

G|-----------------------------------------------|
D|-----------------------------------------------|
A|-----------------------------------------------|
E|-000000000000000000000000000000000-------------|

G|-----------------------------------------------|
D|-----------------------------------------------|
A|-----------------------333333333333333---------|
E|-000000000000000-------------------------------|

Chorus
Outro (like chorus) End with \"E\"

13.LOVING THE ALIEN

Intro:
G-----------------------------------------------------------|
D--5-5------------------------------------------------------|
A--------3--------------------------------------------------|
E-----------------------------------------------------------|


G-----------------------------------------------------------|
D-----------------------------------------------------------|
A---3-3-3-3------3-3--------------------0-0-0-0-0------0-0--|
E-----------------------------------------------------------|
      Sometimes I think I\'m scared, sometimes I know

G-----------------------------------------------------------|
D-----------------------------------------------------------|
A-----------------------------------------------------------|
E---0-0-0-0-0------0-0-----------------3-3-3-3-3------------|
     Feel like making love, sometimes I don\'t

G-----------------------------------------------------------|
D-----------------------------------------------------------|
A---0-1-3------3-3-3-3----------3-5------0-0-0-0-0----------|
E-----------------------------------------------------------|
     I feel like letting go, maybe not

G-----------------------------------------------------------|
D-----------------------------------------------------------|
A---3-------------------------------------------------------|
E--------0-0-0-0-0-0---------------------3-3-3-3-3-3--------|
     I feel like giving up, is all we\'ve got

G-----------------------------------------------------------|
D-----------------------------------------------------------|
A-------------3-2-0-2-0-------------------------------------|
E---1-1-1------------------3-3-3-3-3-3-3--------------------|
     Sometimes is all the time

G-----------------------------------------------------------|
D-----------------------------------------------------------|
A-------------3-2-0-2-0-------------------------------------|
E---1-1-1------------------3-3-3-3-3-3-3--------------------|
     And never means maybe

G-----------------------------------------------------------|
D-----------------------------------------------------------|
A-------------3-2-0-2-0-------------------------------------|
E---1-1-1------------------3-3-3-3-3-3-3--------------------|
     Sometimes is all the time

G-----------------------------------------------------------|
D-----------------2-2-2-2-2-2---3-3-3-3-3-3---5-5-5-5-5-5---|
A---3-3-3-3-3-3---------------------------------------------|
E-----------------------------------------------------------|
     Maybe...And I\'m moving on, and I\'m moving on
    (sometimes I feel alone)

G-----------------------------------------------------------|
D-----------------2-2-2-2-2-2---3-3-3-3-3-3---3-2-0---------|
A---3-3-3-3-3-3---------------------------------------------|
E-----------------------------------------------------------|
     And I\'m moving on, and I\'m moving on

G-----------------------------------------------------------|
D-----------------------------------------------------------|
A---3-3-3-3------3-3------------------0-0-0-0-0------0-0----|
E-----------------------------------------------------------|
     Sometimes I make believe, when we\'re alone

G-----------------------------------------------------------|
D-----------------------------------------------------------|
A-----------------------------------------------------------|
E---0-0-0-0-0------0-0-----------------3-3-3-3-3------------|
     Machines have taken hold, can you get me to a telephone

G-----------------------------------------------------------|
D-----------------------------------------------------------|
A---0-1-3---3-3-3---3-5---0-0-0-0-0---3-2-------------------|
E-----------------------------------------------------------|
     I\'ts just the little things, you used to see

G-----------------------------------------------------------|
D-----------------------------------------------------------|
A-----------------------------------------------------------|
E---0-0-0-0-0------0-0-----------------3-3-3-3-3------------|
     Am I still that man who makes you who you want to be

G-----------------------------------------------------------|
D-----------------------------------------------------------|
A-------------3-2-0-2-0-------------------------------------|
E---1-1-1------------------3-3-3-3-3-3-3--------------------|
     Sometimes is all the time

G-----------------------------------------------------------|
D-----------------------------------------------------------|
A-------------3-2-0-2-0-------------------------------------|
E---1-1-1------------------3-3-3-3-3-3-3--------------------|
     And never means maybe

G-----------------------------------------------------------|
D-----------------------------------------------------------|
A-------------3-2-0-2-0-------------------------------------|
E---1-1-1------------------3-3-3-3-3-3-3--------------------|
     Sometimes is all the time

G-----------------------------------------------------------|
D-----------------2-2-2-2-2-2---3-3-3-3-3-3---5-5-5-5-5-5---|
A--3-3-3-3-3-3----------------------------------------------|
E-----------------------------------------------------------|
     Maybe...And I\'m moving on, and I\'m moving on
    (sometimes I feel alone)

G-----------------------------------------------------------|
D-----------------------2-2-2-2-2-2---3-3-3-3-3-3---3-2-0---|
A--0-1-3---3-3-3-3-3-3--------------------------------------|
E-----------------------------------------------------------|
     And I\'m moving on, and I\'m moving on

G-----------------------------------------------------------|
D-----------------------------------------------------------|
A---5-5-5-5-5---3-3-3-3-3---2-2-2-2-2---5-5-5-5-5-----------|
E-----------------------------------------------------------|
     I never noticed, how lovely were the aliens,
     lovely were the aliens

G-----------------------------------------------------------|
D-----------------------------------------------------------|
A---5-5-5-5-5---3-3-3-3-3---2-2-2-2-2---5-5-5-5-5-----------|
E-----------------------------------------------------------|
     I never noticed, how lovely were the aliens,
     lovely were the aliens

G-----------------------------------------------------------|
D-----------------------------------------------------------|
A---0-5-5-5-5-5---0-3-3-3-3-3---0-2-2-2-2-2---0-5-5-5-5-5---|
E-----------------------------------------------------------|
     (NO VOCALS) (Guitar solo)

G-----------------------------------------------------------|
D-----------------------------------------------------------|
A---0-5-5-5-5-5---0-3-3-3-3-3---0-2-2-2-2-2---0-5ring-------|
E-----------------------------------------------------------|
     (NO VOCALS) (Guitar solo)

G-----------------------------------------------------------|
D----------------3-2-2-2-2-2---3-3-3-3-3-3---5-5-5-5-5-5----|
A---3-3-3-3-3-3---------------------------------------------|
E-----------------------------------------------------------|
     Maybe...And I\'m moving on, and I\'m moving on
    (sometimes I feel alone)

G------------------------------------------------------------|
D--------------------3-2-2-2-2-2---3-3-3-3-3-3---5-5-5-5-5-5-|
A--0-1-3-3-3-3-3-3-3-----------------------------------------|
E------------------------------------------------------------|
     Maybe...And I\'m moving on, and I\'m moving on
    (sometimes I feel alone)

G-----------------------------------------------------------|
D--------------------3-2-2-2-2-2---3-3-3-3-3-3---5ring------|
A--0-1-3-3-3-3-3-3-3----------------------------------------|
E-----------------------------------------------------------|
     And I\'m moving on, and I\'m moving on

G-----------------------------------------------------------|
D-----------------2ring------3ring--------5ring-------------|
A-------3ring-----------------------------------------------|
E-----------------------------------------------------------|
     And I\'m moving on, and I\'m moving on

G-----------------------------------------------------------|
D-----------------2ring------3ring--------5ring-------------|
A-------3ring----------------------------------------3ring--|
E-----------------------------------------------------------|
     And I\'m moving on, and I\'m moving on

ENJOY!!!
comments
print report bad tab
4 comments total. Showing first comments.
0 reply
_TheBassist01_ wrote on February 20 2005, 12:00 am

what do you know?

0 reply
Andrew Zara wrote on February 20 2005, 12:00 am

what the hell does that mean?

0 reply
whiplash671 wrote on April 3 2005, 12:00 am

On Dirty Little Thing the riff goes

E|-0--3--0--5--0--6--0--5--3h5p3----|

I want to post or [tab]
guest
You may want to rate the tab now too:
select rating
Please do not post tabs as comments. Select "correction" instead!