Oops, an error
Loading. Please wait.

Contraband Bass Tab

ver2
ver2

Album

More versions @911Tabs.com
731 views 6 this week
1 commentread comment
1 2 3 4 5
accurate
x 4
Autoscroll
+/-
esc
set tempo
stop
Contributor
Difficulty
intermediate
Hey! There's an official Ultimate Guitar app which is ideal
for learning songs when you're away from computer. Get the app
WARNING: You are trying to view
                                    content from Ultimate-Guitar.com
                                    in an unauthorized application,
                                    which is prohibited.

                                    Please use an official Ultimate
                                    Guitar Tabs application for iPhone,
                                    iPad or Android to access legitimate
                                    chords, guitar, bass, and drum tabs
                                    from Ultimate-Guitar.com database.

                                    Type "ultimate guitar tabs" in Apple
                                    App Store's or Android Market's
                                    search to find the application.
Band: Velvet Revolver
Album: Contraband	
Bassist: Duff McKagan

Song: Sucker Train Blues(#1)Tuning: E,A,D,G.
Intro
|--------------||----------------------------|
|-----------14-||o-(14)-14-14-14-13-14-14-14-|
|--------------||o---------------------------|
|--------------||----------------------------|

|-------------------12----|---------------------------|
|-14-14-14-14-13-14----14-|-(14)-14-14-14-13-14-14-14-|
|-------------------------|---------------------------|
|-------------------------|---------------------------|
                            4x
|-----------------------------||
|-14-14-14-14-14-------12-14-o||
|----------------12h14-------o||
|-----------------------------||

|---------------------------|--------------------||
|-(14)-14-14-14-13-14-14-14-|-14-14-14-0-5-4-0---||
|---------------------------|--------------------||
|---------------------------|------------------3-||

Pre-Verse
|-------------------|-----------------|-------------------|-----------------|
|-------------------|-----------------|-------------------|-----------------|
|-------------------|-----------------|-------------------|-----------------|
|-(3)-3-3-3-3-3-3-3-|-3-3-3-3-3-3-3-0-|-(0)-0-0-0-0-0-0-0-|-0-0-0-0-0-0-0-3-|

|-------------------|-----------------|-------------------|-----------------||
|-------------------|-----------------|-------------------|-----------------||
|-------------------|-----------------|-------------------|---------------7-||
|-(3)-3-3-3-3-3-3-3-|-3-3-3-3-3-3-3-0-|-(0)-0-0-0-0-0-0-0-|-0-0-0-0-0-0-0---||

Verse
||--------------------|-----------------|
||o-------------------|-------------5---|
||o-(7)-7-7-7-6-7-7-7-|-7-7-7-7-6-7---7-|
||--------------------|-----------------|
                                        3x
|-------------------|--------------------||
|-------------------|-------------------o||
|-(7)-7-7-7-6-7-7-7-|-7-7-7-7-7-----5-7-o||
|-------------------|-----------5h7------||

|-------------------|-----------------|-------------------|-------------------||
|-------------------|-------------5---|-------------------|-------5---5-------||
|-(7)-7-7-7-6-7-7-7-|-7-7-7-7-6-7---7-|-(7)-7-7-7-6-7-7-7-|-7-5h7---7---7-5-0-||
|-------------------|-----------------|-------------------|-------------------||

Pre-Chorus
|-------------------|-------------------|-------------------|-----------------|
|-------------------|-------------------|-------------------|-----------------|
|-(0)---------------|-------------------|-------------------|-----------------|
|-----5-5-5-5-5-5-3-|-(3)-3-3-3-3-3-3-7-|-(7)-7-7-7-7-7-7-7-|-7-7-7-7-7-7-7-5-|

|-------------------|-------------------|-------------------|-----------------||
|-------------------|-------------------|-------------------|-----------------||
|-------------------|-------------------|-------------------|-----------------||
|-(5)-5-5-5-5-5-5-3-|-(3)-3-3-3-3-3-3-7-|-(7)-7-7-7-7-7-7-7-|-7-7-7-7-6-5-0-3-||

Chorus
|-------------------|-----------------|-------------------|-----------------|
|-------------------|-----------------|-------------------|-----------------|
|-------------------|-----------------|-------------------|-----------------|
|-(3)-3-3-3-3-3-3-3-|-3-3-3-3-3-3-3-0-|-(0)-0-0-0-0-0-0-0-|-0-0-0-0-0-0-0-3-|

|-------------------|-----------------|-------------------|-----------------|
|-------------------|-----------------|-------------------|-----------------|
|-------------------|-----------------|-------------------|-------3-5-------|
|-(3)-3-3-3-3-3-3-3-|-3-3-3-3-3-3-3-0-|-(0)-0-0-0-0-0-0-0-|-0-2-3-----1-2-3-|

|-------------------|-----------------|-------------------|-----------------|
|-------------------|-----------------|-------------------|-----------------|
|-------------------|-----------------|-------------------|-----------------|
|-(3)-3-3-3-3-3-3-3-|-3-3-3-3-3-3-3-0-|-(0)-0-0-0-0-0-0-0-|-0-0-0-0-0-0-0-3-|

|-------------------|-----------------|
|-------------------|-----------------|
|-------------------|-----------------|
|-(3)-3-3-3-3-3-3-3-|-3-3-3-3-3-3-3-0-|

|-------------------|-----------------||-----------------||
|-------------------|-----------------||-----------------||
|-------------------|---------------7-||---7-7-7-7-7-7-5-||
|-(0)-0-0-0-0-0-0-0-|-0-0-0-0-0-0-0---||-0---------------||
Bridge
|-------------------|-------------------|-------------------|-----------------|
|-------------------|-------------------|-------------------|-----------------|
|-(5)-5-5-5-5-5-5-3-|-(3)-3-3-3-3-3-3---|-------------------|---------------5-|
|-------------------|-----------------0-|-(0)-0-0-0-0-0-0-0-|-0-0-0-0-0-0-0---|

|-------------------|-------------------|-------------------|-----------------|
|-------------------|-------------------|-------------------|-----------------|
|-(5)-5-5-5-5-5-5-3-|-(3)-3-3-3-3-3-3---|-------------------|---------------5-|
|-------------------|-----------------0-|-(0)-0-3p0-0-0-3p0-|-0-0-3p0-0-0-3---|

|-------------------|-------------------|-------------------|-----------------|
|-------------------|-------------------|-------------------|-----------------|
|-(5)-5-5-5-5-5-5-3-|-(3)-3-3-3-3-3-3---|-------------------|---------------5-|
|-------------------|-----------------0-|-(0)-0-0-0-0-0-0-0-|-0-0-0-0-0-0-0---|

|-----------------|-------------------|-------------------|------------------||
|-----------------|-------------------|-------------------|-/9-9-9-9-9-9-9---||
|-5-5-5-5-5-5-5-3-|-(3)-3-3-3-3-3-3-2-|-(2)-2-2-2-2-2-2-2-|------------------||
|-----------------|-------------------|-------------------|----------------0-||

Guitar Solo
|-------------------|-----------------|-------------------|-----------------|
|-------------------|-----------------|-------------------|-----------------|
|-------------------|-----------------|-------------------|-----------------|
|-(0)-0-0-0-0-0-0-0-|-0-0-0-0-0-0-0-3-|-(3)-3-3-3-3-3-3-3-|-3-3-3-3-3-3-3-0-|

|-------------------|-----------------|-------------------|-----------------|
|-------------------|-----------------|-------------------|-----------------|
|-------------------|-----------------|-------------------|-----------------|
|-(0)-0-0-0-0-0-0-0-|-0-0-0-0-0-0-0-3-|-(3)-3-3-3-3-3-3-3-|-3-3-3-3-3-3-5-0-|

|-------------------|-----------------|-------------------|-----------------|
|-------------------|-----------------|-------------------|-----------------|
|-------------------|-----------------|-------------------|-----------------|
|-(0)-0-0-0-0-0-0-0-|-0-0-0-0-0-0-0-3-|-(3)-3-3-3-3-3-3-3-|-3-3-3-3-3-3-3-5-|

|-------------------|-------------------|-------------------|-----------------||
|-------------------|-------------------|-------------------|-----------------||
|-------------------|-------------------|-------------------|-----------------||
|-(5)-5-5-5-5-5-5-3-|-(3)-3-3-3-3-3-3-7-|-(7)-7-7-7-7-7-7-7-|-7-7-7-7-7-7-7-8-||


Drum solo with weird voice in background
|---------------|------------|---------------||
|---------------|------------|---------------||
|---------------|------------|---------------||
|-(8)\----------|------------|-\13\--------3-||

Out-Chorus
||--------------------|-----------------|
||o-------------------|-----------------|
||o-------------------|-----------------|
||--(3)-3-3-3-3-3-3-3-|-3-3-3-3-3-3-3-0-|
                                        5x
|-------------------|-------------------||
|-------------------|------------------o||
|-------------------|------------------o||
|-(0)-0-0-0-0-0-0-0-|-0-0-0-0-0-0-0-3---||

|-------------------|-----------------|-------------------|-----------------||
|-------------------|-----------------|-------------------|-----------------||
|-------------------|-----------------|-------------------|-----------------||
|-(3)-3-3-3-3-3-3-3-|-3-3-3-3-3-3-3-0-|-(0)-0-0-0-0-0-0-0-|-0-0-0-0-0-0-0-0-||

|--------------|------------|------------|--------|
|--------------|------------|------------|--------|
|--------------|------------|------------|--------|
|-(0)----------|---------0--|-(0)--------|-(0)----|



Song: Do it For the Kids(#2) Tuning: E,A,D,G.

Verse:                     
G|---------------------------------|
D|---------------------------------|
A|---------------------------------|
E|-5-5-3-4-5-5-3-4-5-5-5-6--8----6-|x11

G|---------------------------------|
D|-----------------5-7-7-7-7-5-----|
A|-------------5-7-------------7-6-|
E|-5-5-3-4-5-5---------------------|x1

Chorus:
G|-----------------------------------------------------------------------|
D|-------------------------/15-15-15-15\---------------------------------|
A|-5-5-5-5-5-5-5-5-5-5-5-5---------------0-0-0-0-0-0-0-0-0-0-0-0-0-0-0-0-|
E|-----------------------------------------------------------------------|

G|-----------------------------------------------------------------------------------------------|
D|-----------------------------------------------------------------------------------------------|
A|-8-8-8-8-7-8-8-8-8-8-7-8-7-8-8-8-0-0-0-0-0-0-0-0-0-0-----8-8-7-7-5-5-5-5-5-5-5-5-5-5-5---------|
E|-----------------------------------------------------0-0-------------------------------8--6--6-|

Verse:
G|---------------------------------|
D|---------------------------------|
A|---------------------------------|
E|-5-5-3-4-5-5-3-4-5-5-5-6--8----6-|

G|---------------------------------|
D|-----------------5-7-7-7-7-7-7-7-|
A|-------------5-7-----------------|
E|-5-5-3-4-5-5---------------------|

Chorus:
G|-----------------------------------------------------------------------|
D|-------------------------/15-15-15-15\---------------------------------|
A|-5-5-5-5-5-5-5-5-5-5-5-5---------------0-0-0-0-0-0-0-0-0-0-0-0-0-0-0-0-|
E|-----------------------------------------------------------------------|

						1st ending	     
G|---------------------------------|---------------------------------|
D|---------------------------------|---------------------------------|
A|-8-8-8-8-7-8-8-8-8-8-7-8-7-8-8-8-|-0-0-0-0-0-0-0-0-0-0-----8-8-7-7-|
E|---------------------------------|---------------------0-0---------|

		2nd ending              
G|---------------------------------|
D|---------------------------------|
A|-0-0-0-0-0-0-0-0-0-0-0-0-0-0-0-0-|
E|---------------------------------|

Bridge:
G|-------------------------------------------------------------------------------------------------|
D|-3-3-3-3-3-3-3-3-3-3-3-3-3-3-3-3-----------------------------------------------------------------|
A|---------------------------------3-3-3-3-3-3-3-3-3-3-3-3-3-3-3-3-1-1-1-1-1-1-1-1-1-1-1-1-1-1-1-1-|
E|-------------------------------------------------------------------------------------------------|

G|-------------------------------------------------------------------------------------------------|
D|---------------------------------3-3-3-3-3-3-3-3-3-3-3-3-3---------------------------------------|
A|-----------------0-0-0-0-0-0-0-0---------------------------0-1-2-3-3-3-3-3-3-3-3-3-3-3-3-3-3-3-3-|
E|-1-1-1-1-1-1-1-1---------------------------------------------------------------------------------|

G|-----------------------------------------------------------------------------------------------|
D|-----------------------------------------------------------------------------------------------|
A|-1-1-1-1-1-1-1-1-1-1-1-1-1-1-1-1-----------------0-0-0-0-0-0-0-0-5-5-5-5-5-5-5-5-5-5-5---------|
E|---------------------------------1-1-1-1-1-1-1-1---------------------------------------8--6--6-|

G|---------------------------------|
D|---------------------------------|
A|---------------------------------| X3
E|-5-5-3-4-5-5-3-4-5-5-3-4-5-6-6-6-|

Verse:
G|---------------------------------|
D|---------------------------------|
A|---------------------------------| x3
E|-5-5-3-4-5-5-3-4-5-5-5-6--8----6-|

G|---------------------------------|
D|---------------------------------|
A|---------------------------------|
E|-5---------------5-5-5-5-5-5-5-5-|

Chorus:
G|-----------------------------------------------------------------------|
D|-------------------------/15-15-15-15\---------------------------------|
A|-5-5-5-5-5-5-5-5-5-5-5-5---------------0-0-0-0-0-0-0-0-0-0-0-0-0-0-0-0-|
E|-----------------------------------------------------------------------|\
                                                                           | x2
G|-----------------------------------------------------------------------|/
D|-----------------------------------------------------------------------|
A|-8-8-8-8-7-8-8-8-8-8-7-8-7-8-8-8-0-0-0-0-0-0-0-0-0-0-----8-8-7-7-------|
E|-----------------------------------------------------0-0---------------|

Ending:
G|-----------------------------------------------------------------|
D|-----------------------------------------------------------------|
A|-5-5-5-5-5-5-5-5-5-5-5-5-5-5-------------------------------------|
E|-----------------------------3-4-5-5-5-5-5-5-5-5-5-5-5-5-5-5-5-5-|

G|----------------------------------------------------------------------------|
D|----------------------------------------------------------------------------|
A|---------------------------------0-0-0-0-0-0-0-0-0-0-----8---7---5------5\--|
E|-1-1-1-1-1-1-1-1-1-1-1-1-1-1-1-1---------------------0-0--------------------|

End.


Song: Big Machine(#3) Tuning: E,A,D,G.
Intro
G||------------------------|------------------------|------------------------|
D||------------------------|------------------------|------------------------|
A||------------------------|------------------------|------------------------|
E||--0--0----0--0--0----0--|--0--0----0--0--0----0--|--0--0----0--0--0----0--|


                                                                      
------------------------|---------------------|----------------------|
------------------------|---------------------|----------------------|
------------------------|--7--6--5------------|----------------------|
--0--0----0--0--0----0--|---------------------|--5--4--3--------5----|


                                                                        
------------------------|------------------------|---------------------|
------------------------|------------------------|---------------------|
------------------------|------------------------|--7--6--5------------|
--0--0----0--0--0----0--|--0--0----0--0--0----0--|---------------------|


                      Verse                                                   
----------------------|------------------------|------------------------|
----------------------|------------------------|------------------------|
----------------------|------------------------|------------------------|
--5--4--3--------5----|--0--0----0--0--0----0--|--0--0----0--0--0----0--|


                                                                           
------------------------|------------------------|------------------------|
------------------------|------------------------|------------------------|
------------------------|------------------------|------------------------|
--0--0----0--0--0----0--|--0--0----0--0--0----0--|--0--0----0--0--0----0--|


                                                                           
------------------------|------------------------|------------------------|
------------------------|------------------------|------------------------|
------------------------|------------------------|------------------------|
--0--0----0--0--0----0--|--0--0----0--0--0----0--|--0--0----0--0--0----0--|


                                                     Pre-chorus                          
--------------------------|--------------------------|------------------------|
--------------------------|--------------------------|------------------------|
--------------------------|--------------------------|------------------------|
--0--0--3--0--5--0--3--0--|--0--0--3--0--5--0--3--0--|--0--0----0--0--0----0--|


                                                                               
------------------------|--------------------------|--------------------------|
------------------------|--------------------------|--------------------------|
------------------------|--------------------------|--------------------------|
--0--0----0--0--0----0--|--0--0--3--0--5--0--3--0--|--0--0--3--0--5--0--3--0--|


                                                    Chorus                         
--------------------------|-------------------------|------------------------|
--------------------------|-------------------------|------------------------|
--------------------------|-------------------------|------------------------|
--3--3--3--3--3--3--3--3--|--3--3--3--3--3--5--5----|--0--0----0--0--0----0--|


                                                                      
------------------------|---------------------|----------------------|
------------------------|---------------------|----------------------|
------------------------|--7--6--5------------|----------------------|
--0--0----0--0--0----0--|---------------------|--5--4--3--------5----|


                                                                        
------------------------|------------------------|---------------------|
------------------------|------------------------|---------------------|
------------------------|------------------------|--7--6--5------------|
--0--0----0--0--0----0--|--0--0----0--0--0----0--|---------------------|


                                                                         
----------------------|------------------------|------------------------|
----------------------|------------------------|------------------------|
----------------------|------------------------|------------------------|
--5--4--3--------5----|--0--0----0--0--0----0--|--0--0----0--0--0----0--|


                                                                      
---------------------|----------------------|------------------------|
---------------------|----------------------|------------------------|
--7--6--5------------|----------------------|------------------------|
---------------------|--5--4--3--------5----|--0--0----0--0--0----0--|

Verse
                                                                           
------------------------|------------------------|------------------------|
------------------------|------------------------|------------------------|
------------------------|------------------------|------------------------|
--0--0----0--0--0----0--|--0--0----0--0--0----0--|--0--0----0--0--0----0--|


                                                                           
------------------------|------------------------|------------------------|
------------------------|------------------------|------------------------|
------------------------|------------------------|------------------------|
--0--0----0--0--0----0--|--0--0----0--0--0----0--|--0--0----0--0--0----0--|


                                                                           
------------------------|------------------------|------------------------|
------------------------|------------------------|------------------------|
------------------------|------------------------|------------------------|
--0--0----0--0--0----0--|--0--0----0--0--0----0--|--0--0----0--0--0----0--|

									Prechorus
                                                                               
--------------------------|--------------------------|------------------------|
--------------------------|--------------------------|------------------------|
--------------------------|--------------------------|------------------------|
--0--0--3--0--5--0--3--0--|--0--0--3--0--5--0--3--0--|--0--0----0--0--0----0--|


                                                                               
------------------------|--------------------------|--------------------------|
------------------------|--------------------------|--------------------------|
------------------------|--------------------------|--------------------------|
--0--0----0--0--0----0--|--0--0--3--0--5--0--3--0--|--0--0--3--0--5--0--3--0--|


                                                     Chorus                         
--------------------------|-------------------------|------------------------|
--------------------------|-------------------------|------------------------|
--------------------------|-------------------------|------------------------|
--3--3--3--3--3--3--3--3--|--3--3--3--3--3--5--5----|--0--0----0--0--0----0--|


                                                                      
------------------------|---------------------|----------------------|
------------------------|---------------------|----------------------|
------------------------|--7--6--5------------|----------------------|
--0--0----0--0--0----0--|---------------------|--5--4--3--------5----|


                                                                        
------------------------|------------------------|---------------------|
------------------------|------------------------|---------------------|
------------------------|------------------------|--7--6--5------------|
--0--0----0--0--0----0--|--0--0----0--0--0----0--|---------------------|


                                                                         
----------------------|------------------------|------------------------|
----------------------|------------------------|------------------------|
----------------------|------------------------|------------------------|
--5--4--3--------5----|--0--0----0--0--0----0--|--0--0----0--0--0----0--|


                                             Bridge                         
---------------------|----------------------|------------------------|
---------------------|----------------------|------------------------|
--7--6--5------------|----------------------|------------------------|
---------------------|--5--4--3--------5----|--0--0----0--0--0----0--|


                                                                               
------------------------|--------------------------|--------------------------|
------------------------|--------------------------|--------------------------|
------------------------|--3--3--3--3--3--3--3--3--|--------------------------|
--0--0----0--0--0----0--|--------------------------|--0--0--0--0--0--0--0--0--|


                                                      
--------------------------|--------------------------|
--------------------------|--------------------------|
--5--5--5--5--5--5--5--5--|--------------------------|
--------------------------|--0--0--0--0--0--0--0--0--|


                                                      
--------------------------|--------------------------|
--------------------------|--------------------------|
--3--3--3--3--3--3--3--3--|--------------------------|
--------------------------|--3--3--3--3--3--3--3--3--|


                                                      
--------------------------|--------------------------|
--------------------------|--------------------------|
--------------------------|-----------------7--7--7--|
--5--5--5--5--5--5--5--5--|--5--5--5--5--5-----------|


                                                      
--------------------------|--------------------------|
--------------------------|--------------------------|
--3--3--3--3--3--5--5--5--|--------------------------|
--------------------------|--0--0--0--0--0--3--3--3--|


                                                      
--------------------------|--------------------------|
--------------------------|--------------------------|
--5--5--5--5--5--5--5--5--|--7--7--7--7--7/-2--2--2--|
--------------------------|--------------------------|


                                                      
--------------------------|--------------------------|
--------------------------|--------------------------|
--3--3--3--3--3--3--------|--------------------------|
--------------------2--2--|--3--3--3--3--3--3--3--3--|


                                                                              
--------------------------|-------------------------|------------------------|
--------------------------|-------------------------|------------------------|
--------------------------|-----------------2-------|------------------------|
--5--5--5--5--5--5--5--5--|--5--5--5--5--5-----3----|--0--0----0--0--0----0--|


                        Verse                                                   
------------------------|------------------------|------------------------|
------------------------|------------------------|------------------------|
------------------------|------------------------|------------------------|
--0--0----0--0--0----0--|--0--0----0--0--0----0--|--0--0----0--0--0----0--|


                                                                           
------------------------|------------------------|------------------------|
------------------------|------------------------|------------------------|
------------------------|------------------------|------------------------|
--0--0----0--0--0----0--|--0--0----0--0--0----0--|--0--0----0--0--0----0--|


                                                                           
------------------------|------------------------|------------------------|
------------------------|------------------------|------------------------|
------------------------|------------------------|------------------------|
--0--0----0--0--0----0--|--0--0----0--0--0----0--|--0--0----0--0--0----0--|


                                                                             
------------------------|------------------------|--------------------------|
------------------------|------------------------|--------------------------|
------------------------|------------------------|--------------------------|
--0--0----0--0--0----0--|--0--0----0--0--0----0--|--0--0--3--0--5--0--3--0--|


                           Prechorus                                                  
--------------------------|------------------------|------------------------|
--------------------------|------------------------|------------------------|
--------------------------|------------------------|------------------------|
--0--0--3--0--5--0--3--0--|--0--0----0--0--0----0--|--0--0----0--0--0----0--|


                                                      
--------------------------|--------------------------|
--------------------------|--------------------------|
--------------------------|--------------------------|
--0--0--3--0--5--0--3--0--|--0--0--3--0--5--0--3--0--|


                                                    Chorus                         
--------------------------|-------------------------|------------------------|
--------------------------|-------------------------|------------------------|
--------------------------|-------------------------|------------------------|
--3--3--3--3--3--3--3--3--|--3--3--3--3--3--5--5----|--0--0----0--0--0----0--|


                                                                      
------------------------|---------------------|----------------------|
------------------------|---------------------|----------------------|
------------------------|--7--6--5------------|----------------------|
--0--0----0--0--0----0--|---------------------|--5--4--3--------5----|


                                                                        
------------------------|------------------------|---------------------|
------------------------|------------------------|---------------------|
------------------------|------------------------|--7--6--5------------|
--0--0----0--0--0----0--|--0--0----0--0--0----0--|---------------------|


                                                                         
----------------------|------------------------|------------------------|
----------------------|------------------------|------------------------|
----------------------|------------------------|------------------------|
--5--4--3--------5----|--0--0----0--0--0----0--|--0--0----0--0--0----0--|


                                                                      
---------------------|----------------------|------------------------|
---------------------|----------------------|------------------------|
--7--6--5------------|----------------------|------------------------|
---------------------|--5--4--3--------5----|--0--0----0--0--0----0--|


                                                                           
------------------------|------------------------|------------------------|
------------------------|------------------------|------------------------|
------------------------|------------------------|------------------------|
--0--0----0--0--0----0--|--0--0----0--0--0----0--|--0--0----0--0--0----0--|


                                                                           
------------------------|------------------------|------------------------|
------------------------|------------------------|------------------------|
------------------------|------------------------|------------------------|
--0--0----0--0--0----0--|--0--0----0--0--0----0--|--0--0----0--0--0----0--|


                                                                           
------------------------|------------------------|------------------------|
------------------------|------------------------|------------------------|
------------------------|------------------------|------------------------|
--0--0----0--0--0----0--|--0--0----0--0--0----0--|--0--0----0--0--0----0--|


                                                                           
------------------------|------------------------|------------------------|
------------------------|------------------------|------------------------|
------------------------|------------------------|------------------------|
--0--0----0--0--0----0--|--0--0----0--0--0----0--|--0--0----0--0--0----0--|


                                                                           
------------------------|------------------------|------------------------|
------------------------|------------------------|------------------------|
------------------------|------------------------|------------------------|
--0--0----0--0--0----0--|--3--3----3--3--3----3--|--5--5----5--5--5----5--|


                                                                             
------------------------|--------------------------|------------------------|
------------------------|--------------------------|------------------------|
--3--3----3--3--3----3--|--5--5--5--5--------------|------------------------|
------------------------|--------------3--3--3--3--|--0--0----0--0--0----0--|


                                                                      
------------------------|---------------------|----------------------|
------------------------|---------------------|----------------------|
------------------------|--7--6--5------------|----------------------|
--0--0----0--0--0----0--|---------------------|--5--4--3--------5----|


                                                                           
------------------------|------------------------|------------------------|
------------------------|------------------------|------------------------|
------------------------|------------------------|------------------------|
--0--0----0--0--0----0--|--0--0----0--0--0----0--|--0--0----0--0--0----0--|


                                                                           
------------------------|------------------------|------------------------|
------------------------|------------------------|------------------------|
------------------------|------------------------|------------------------|
--0--0----0--0--0----0--|--0--0----0--0--0----0--|--0--0----0--0--0----0--|


                                                                        
------------------------|------------------------|---------------------|
------------------------|------------------------|---------------------|
------------------------|------------------------|--7--6--5------------|
--0--0----0--0--0----0--|--0--0----0--0--0----0--|---------------------|


                      Outro                                               
----------------------|----------------------|----------------------|
----------------------|----------------------|----------------------|
----------------------|----------------------|----------------------|
--5--4--3--------5----|--0--0------0--0------|--0--0------0--0------|


      let ring                                                                       
-------------------|------------------|------------------|------------------|
-------------------|------------------|------------------|------------------|
-------------------|------------------|------------------|------------------|
--0----------------|------------------|------------------|------------------|


                                                          
------------------|------------------|------------------||
------------------|------------------|------------------||
------------------|------------------|------------------||
------------------|------------------|------------------||



Song: Illegal I Song(#4) Tuning: E,A,D,G.

Intro:
G------------------------------------------------------------------------|
D------------------------------------------------------------------------|
A---------------------------------------4--------------------------------|
E--3-3-3-2-4-3----6-4----3-3-3-2-4-3--------4----------------------------|


G------------------------------------------------------------------------|
D------------------------------------------------------------------------|
A------------------------------------------------------------------------|
E--3-3-3-2-4-3----6-4----3-3-3-2-4-3-------------------------------------|


G------------------------------------------------------------------------|
D------------------------------------------------------------------------|
A---------------------------------------4--------------------------------|
E--3-3-3-2-4-3----6-4----3-3-3-2-4-3--------4----------------------------|


G------------------------------------------------------------------------|
D------------------------------------------------------------------------|
A------------------------------------------------------------------------|
E--3-3-3-2-4-3----6-4----3-3-3-2-4-3-------------------------------------|

Verse
G------------------------------------------------------------------------|
D------------------------------------------------------------------------|
A------------------------------------------------------------------------|
E--3-3-3-2-4-3---3-3-3-2-4-3---3-3-3-2-4-3---3-3-3-2-4-3-----------------|
One fine day...I'll settle down...When you bloody me...I ran aground

G------------------------------------------------------------------------|
D------------------------------------------------------------------------|
A------------------------------------------------------------------------|
E--3-3-3-2-4-3---3-3-3-2-4-3---3-3-3-2-4-3---3-3-3-2-4-3-----------------|
With my broken face...And fisticuff...*** the rest and...All their stuff

Pre-chorus
G------------------------------------------------------------------------|
D------------------------------------------------------------------------|
A---------------------------------------4--------------------------------|
E--3-3-3-2-4-3----6-4----3-3-3-2-4-3--------4----------------------------|
I...don't...anymore........


G------------------------------------------------------------------------|
D------------------------------------------------------------------------|
A------------------------------------------------------------------------|
E--3-3-3-2-4-3----6-4----3-3-3-2-4-3-------------------------------------|
I...don't...anymore.......

Chorus
G------------------------------------------------------------------------|
D------------------------------------------------------------------------|
A------------------------------------------------------------------------|
E--7-7-7-7-7-7-7-7-6-6-6-6-6-6-6-6---------------------------------------|
Just look and you'll, see me........


G------------------------------------------------------------------------|
D------------------------------------------------------------------------|
A------------------------------------------------------------------------|
E--4-4-4-4-4-4-4-4-4-4-4-4-4-4-4-4---/-----------------------------------|
Lying there...lying there

G------------------------------------------------------------------------|
D------------------------------------------------------------------------|
A------------------------------------------------------------------------|
E--7-7-7-7-7-7-7-7-6-6-6-6-6-6-6-6---------------------------------------|
Just look and you'll, see me........

G------------------------------------------------------------------------|
D------------------------------------------------------------------------|
A------------------------------------------------------------------------|
E--4-4-4-4-4-4-4-4-4-4-4-4-4-4-4-4---------------------------------------|
Lying there...lying there

Pre-Verse
G------------------------------------------------------------------------|
D------------------------------------------------------------------------|
A---------------------------------------4--------------------------------|
E--3-3-3-2-4-3----6-4----3-3-3-2-4-3--------4----------------------------|


G------------------------------------------------------------------------|
D------------------------------------------------------------------------|
A------------------------------------------------------------------------|
E--3-3-3-2-4-3----6-4----3-3-3-2-4-3-------------------------------------|

Verse
G------------------------------------------------------------------------|
D------------------------------------------------------------------------|
A------------------------------------------------------------------------|
E--3-3-3-2-4-3---3-3-3-2-4-3---3-3-3-2-4-3---3-3-3-2-4-3-----------------|
Another way...A battle ground...A ready teller whore...Who makes no sound

G------------------------------------------------------------------------|
D------------------------------------------------------------------------|
A------------------------------------------------------------------------|
E--3-3-3-2-4-3---3-3-3-2-4-3---3-3-3-2-4-3---3-3-3-2-4-3-----------------|
Keep the money bitch...Keep the stuff...Fly around the world...And keep it up

Pre-chorus
G------------------------------------------------------------------------|
D------------------------------------------------------------------------|
A---------------------------------------4--------------------------------|
E--3-3-3-2-4-3----6-4----3-3-3-2-4-3--------4----------------------------|
I...don't...anymore.......


G------------------------------------------------------------------------|
D------------------------------------------------------------------------|
A------------------------------------------------------------------------|
E--3-3-3-2-4-3----6-4----3-3-3-2-4-3-------------------------------------|
I...don't...anymore.......

Chorus
G------------------------------------------------------------------------|
D------------------------------------------------------------------------|
A------------------------------------------------------------------------|
E--7-7-7-7-7-7-7-7-6-6-6-6-6-6-6-6---------------------------------------|
Just look and you'll, see me........

G------------------------------------------------------------------------|
D------------------------------------------------------------------------|
A------------------------------------------------------------------------|
E--4-4-4-4-4-4-4-4-4-4-4-4-4-4-4-4---/-----------------------------------|
Lying there...lying there

G------------------------------------------------------------------------|
D------------------------------------------------------------------------|
A------------------------------------------------------------------------|
E--7-7-7-7-7-7-7-7-6-6-6-6-6-6-6-6---------------------------------------|
Just look and you'll, see me........

G------------------------------------------------------------------------|
D------------------------------------------------------------------------|
A------------------------------------------------------------------------|
E--4-4-4-4-4-4-4-4-4-4-4-4-4-4-4-4---------------------------------------|
Lying there...lying there

G------------------------------------------------------------------------|
D------------------------------------------------------------------------|
A------------------------------------------------------------------------|
E--3-3-3-2-4-3---3-3-3-2-4-3---3-3-3-2-4-3---3-3-3-2-4-3-----------------|

Bridge
G------------------------------------------------------------------------|
D------------------------------------------------------------------------|
A----------------------------------------4-------------------------------|
E--3-3-3-2-4-3----6-4----3-3-3-2-4-3--------4----------------------------|


G------------------------------------------------------------------------|
D------------------------------------------------------------------------|
A------------------------------------------------------------------------|
E--3-3-3-2-4-3----6-4----3-3-3-2-4-3-------------------------------------|

G------------------------------------------------------------------------|
D------------------------------------------------------------------------|
A------------------------------------------------------------------------|
E--3-3-3-4-3---3-3-------------------------------------------------------|
It's killing time...all day Sunday............	(Repeat 16x)

Pre-chorus
G------------------------------------------------------------------------|
D------------------------------------------------------------------------|
A---------------------------------------4--------------------------------|
E--3-3-3-2-4-3----6-4----3-3-3-2-4-3--------4----------------------------|


G------------------------------------------------------------------------|
D------------------------------------------------------------------------|
A------------------------------------------------------------------------|
E--3-3-3-2-4-3----6-4----3-3-3-2-4----3--3--3-----3----------------------|

Chorus
G------------------------------------------------------------------------|
D------------------------------------------------------------------------|
A------------------------------------------------------------------------|
E--7-7-7-7-7-7-7-7-6-6-6-6-6-6-6-6---------------------------------------|
Just look and you'll, see me........

G------------------------------------------------------------------------|
D------------------------------------------------------------------------|
A------------------------------------------------------------------------|
E--4-4-4-4-4-4-4-4-4-4-4-4-4-4-4-4---/-----------------------------------|
Lying there...lying there

G------------------------------------------------------------------------|
D------------------------------------------------------------------------|
A------------------------------------------------------------------------|
E--7-7-7-7-7-7-7-7-6-6-6-6-6-6-6-6---------------------------------------|
Just look and you'll, see me........

G------------------------------------------------------------------------|
D------------------------------------------------------------------------|
A------------------------------------------------------------------------|
E--4-4-4-4-4-4-4-4-4-4-4-4-4-4-4-4---------------------------------------|
Lying there...lying there

G------------------------------------------------------------------------|
D------------------------------------------------------------------------|
A------------------------------------------------------------------------|
E--7-7-7-7-7-7-7-7-6-6-6-6-6-6-6-6---------------------------------------|
Just look and you'll, see me........

G------------------------------------------------------------------------|
D------------------------------------------------------------------------|
A------------------------------------------------------------------------|
E--4-4-4-4-4-4-4-4-4-4-4-4-4-4-4-4---/-----------------------------------|
Lying there...lying there

G------------------------------------------------------------------------|
D------------------------------------------------------------------------|
A------------------------------------------------------------------------|
E--7-7-7-7-7-7-7-7-6-6-6-6-6-6-6-6---------------------------------------|
Just look and you'll, see me........

G------------------------------------------------------------------------|
D------------------------------------------------------------------------|
A------------------------------------------------------------------------|
E--4-4-4-4-4-4-4-4-4-4-4-4-4-4-4-4---------------------------------------|
Lying there...lying there

G------------------------------------------------------------------------|
D------------------------------------------------------------------------|
A---------------------------------------4--------------------------------|
E--3-3-3-2-4-3----6-4----3-3-3-2-4-3--------4----------------------------|
Just look and you'll........Just look and you'll........

G------------------------------------------------------------------------|
D------------------------------------------------------------------------|
A------------------------------------------------------------------------|
E--3-3-3-2-4-3----6-4----3-3-3-2-4-3-------------------------------------|
Just look and you'll........Just look and you'll........

G------------------------------------------------------------------------|
D------------------------------------------------------------------------|
A---------------------------------------4--------------------------------|
E--3-3-3-2-4-3----6-4----3-3-3-2-4-3--------4----------------------------|
Just look and you'll........Just look and you'll........

G------------------------------------------------------------------------|
D------------------------------------------------------------------------|
A------------------------------------------------------------------------|
E--3-3-3-2-4-3----6-4----3-3-3-2-4----3--3--3-----3----------------------|
Just look and you'll........

End.



Song: Spectacle(#5) Tuning: E,A,D,G.

Intro:
G|--------------------------------------------|
D|--------------------------------------------|
A|3-0-0-3-0-0-3-0-3-0-0-3-0-0-3-0-------------|
E|--------------------------------------------|

Verse:
G|--------------------------------------------|
D|--------------------------------------------|
A|3-0-0-3-0-0-3-0-3-0-0-3-0-0-3-0-------------|
E|--------------------------------------------|

G|--------------------------------------------|
D|--------------------------------------------|
A|--------------------------------------------|
E|3-3-3-3-3-3-3-3--1-1-1-1-1-1-1-1------------|

Chorus:
G|--------------------------------------------|
D|--------------------------------------------|
A|5555555555555555----------------------------|
E|----------------5555555555555555------------|

G|--------------------------------------------|
D|--------------------------------------------|
A|----------------3333333333333333------------|
E|1111111111111111----------------------------|


Bridge:
G|--------------------------------------------|
D|--------------------------------------------|
A|--------------------------------------------|
E|11111111-00000000-11111131-00000000---------|

G|--------------------------------------------|
D|--------------------------------------------|
A|--------33333333-55555555-77777777----------|
E|11111111------------------------------------|

Behind solo:
G|--------------------------------------------|
D|--------------------------------------------|
A|3-0-0-3-0-0-3-0-3-0-0-3-0-0-3-0-------------|
E|--------------------------------------------|
X4

G|--------------------------------------------|
D|--------------------------------------------| 
A|----------------3333333333333333------------|
E|1111111111111111----------------------------|




G|--------------------------------------------|
D|--------------------------------------------|
A|5555555555555555-7777777777777777-0---------|
E|--------------------------------------------|

Let the 0 ring

Order of song:
Intro x5
Verse x4
Chorus x1
Intro x1
Verse x4
Chorus x2
Bridge x1
Behind solo bit x1
Verse x4
Chorus x4
Intro x2



Song: Fall to Pieces(#6) Tuning: E,A,D,G.

INTRO
G|---------------------16-15-13-11--|
D|13p11---13p11---------------------|
A|----------------------------------|
E|----------------------------------|

G|---------------------14h15h16-15-13-------11-|
D|13p11----13p11-------------------------------|
A|---------------------------------------------|
E|---------------------------------------------|

G|---------------------16-15-13-11--------|
D|13p11----13p11--------------------------|
A|----------------------------------------|
E|----------------------------------------|

G|---------------------14h15h16-15-13-11---|
D|13p11----13p11---------------------------|
A|-----------------------------------------|
E|-----------------------------------------|

G|---------------------16-15-13-11---|
D|13p11----13p11---------------------|
A|-----------------------------------|
E|-----------------------------------|

G|--------------------14h15h16-15-13-11-10-8-6---|
D|13p11----13p11---------------------------------|
A|-----------------------------------------------|
E|-----------------------------------------------|

PRE-CHORUS
G|----------------------66666664-----|
D|6666666666666666444444---------4---|
A|-----------------------------------|
E|-----------------------------------|

G|----------------------6664---------|
D|6666666666666666444444-----6-4-----|
A|-------------------------------6-4-|
E|-----------------------------------|

CHORUS
G|-----------------------------------------------|
D|-----------------------------------------------|
A|4---4---4--4--4----0h1--2--2-------------------|
E|-----2h4---------------------0h1h2-2-0h1h2--2--|

G|-----------------4h6----------------|
D|-----------4-/-6-----4--------------|
A|4--4---4-4---------------2--2-------|
E|----2h4----------------------0h1-2--|

VERSE
G|--------------------------------------------------|
D|--------------------------------------------------|
A|4--4------2---------4--4------2---------------2---|
E|--------------2-------------------0h1-2-----------|

G|---------------------------------------------------|
D|---------------------------------------------------|
A|4--4------2---------2--4--4----2---------------2h4-|
E|---------------2------------------0h1-2--2--2h4----|

PRE-CHORUS
G|----------------------66666-4-----|
D|6666666666666666444444--------6-4-|
A|----------------------------------|
E|----------------------------------|

G|--------------------------6664-----|
D|6666666666666666444444---------6-4-|
A|----------------------44-----------| TO CHORUS 2X'S W/VARIATIONS
E|-----------------------------------|

G|---------------------------------|
D|---------------------------------|
A|---------------------------------| 2X'S
E|66666666666666662222222222222222-|

G|----------------------------------------------|
D|--------------------------------444444442-----|
A|-----------------------------------------4-2--|
E|66666666444444442222222222222222--------------|

PLAY CHORUS DURING SOLO THEN THE LAST BAR OF THE SOLO IS

G|-------------------------------------------------------|
D|----------------4444444466666666--4--------------------|
A|6666666666666666---------------------------------------|
E|-------------------------------------------------------|

BACK TO CHORUS



Song: Headspace(#7) Tuning: D,A,D,G.

Intro
G|-----------------------------------------------------------------------|
D|-----------------------------------------------------------------------|
A|----333333333333333222/3-----------------------------------------------|x3
D|-----------------------------------------------------------------------|

Main Riff/Chorus
G|-----------------------------------------------------------------------|
D|-----------------------------------------------------------------------|
A|----3-5-3-0------------------------------------------------------------|x8
D|------------3-3-3-2----------------------------------------------------|

Verse
G|-----------------------------------------------------------------------|
D|-----------------------------------------------------------------------|
A|-----------------------------------------------------------------------|x8
D|----5-7-7-5-7-5-7------------------------------------------------------| 

Main Riff/Chorus
G|-----------------------------------------------------------------------|
D|-----------------------------------------------------------------------|
A|----3-5-3-0------------------------------------------------------------|x4
D|------------3-3-3-2----------------------------------------------------|

Verse
G|-----------------------------------------------------------------------|
D|-----------------------------------------------------------------------|
A|-----------------------------------------------------------------------|x8
D|----5-7-7-5-7-5-7------------------------------------------------------|

Main Riff/Chorus
G|-----------------------------------------------------------------------|
D|-----------------------------------------------------------------------|
A|----3-5-3-0------------------------------------------------------------|x8
D|------------3-3-3-2----------------------------------------------------|

"All That Origianal" Part(listen for timing)
G|-----------------------------------------------------------------------|
D|-----------------------------------------------------------------------|
A|-------------------3-3-3-3-1-1-1-1-------------------------------------|x2
D|----0-0-0-0-3-3-3-3----------------------------------------------------|

Main Riff/Chorus
G|-----------------------------------------------------------------------|
D|-----------------------------------------------------------------------|
A|----3-5-3-0------------------------------------------------------------|x8
D|------------3-3-3-2----------------------------------------------------|

Verse
G|-----------------------------------------------------------------------|
D|-----------------------------------------------------------------------|
A|-----------------------------------------------------------------------|x4
D|----5-7-7-5-7-5-7------------------------------------------------------|

Pre-Chorus Part
G|-----------------------------------------------------------------------|
D|-----------------------------------------------------------------------|
A|---0-3-----------------------------------------------------------------|x1
D|-----------------------------------------------------------------------|

Main Riff/Chorus
G|-----------------------------------------------------------------------|
D|-----------------------------------------------------------------------|
A|----3-5-3-0------------------------------------------------------------|x8
D|------------3-3-3-2----------------------------------------------------|

"All That Origianal" Part
G|-----------------------------------------------------------------------|
D|-----------------------------------------------------------------------|
A|--------------------3-3-3-3-1-1-1-1------------------------------------|x2
D|----0-0-0-0-3-3-3-3----------------------------------------------------|

Main Riff/Chorus
G|-----------------------------------------------------------------------|
D|-----------------------------------------------------------------------|
A|----3-5-3-0------------------------------------------------------------|x4
D|------------3-3-3-2----------------------------------------------------|

Intro
G|-----------------------------------------------------------------------|
D|-----------------------------------------------------------------------|
A|----333333333333333222/3-----------------------------------------------|x3
D|-----------------------------------------------------------------------|

Main Riff/Chorus
G|-----------------------------------------------------------------------|
D|-----------------------------------------------------------------------|
A|----3-5-3-0------------------------------------------------------------|x1
D|------------3-3-3-2----------------------------------------------------|



Song: Superhuman(#8) Tuning: D,A,D,G.

main riff
G------------------------------------------------------|
D------------------------------------------------------|
A------------------------------------------------------|
D—00--00--00--00--004----------------------------------|


bridge
G-------------------------------------------------------|
D-------------------------------------------------------|
A-------------------------------------------------------|
D-6-5h6-5h6--5-3h5-3h5--6-5h6-5h6--5-3h5-38p7p6-5h6-5h6-|

G------------------------------------------------------|
D------------------------------------------------------|
A------------------------------------------------------|
D-5-3h5-3h5--6-5h6-5h6--5-3h5-3h5-8-8h7-8h7-8h7--------|


alternate bridge
G-------------------------------------------------------|
D-------------------------------------------------------|
A-------------------------------------------------------|
D-6-5h6-5h6--5-3h5-3h5--6-5h6-5h6--5-3h5-38p76-5h6-5h6--|

G------------------------------------------------------|
D------------------------------------------------------|
A------------------------------------------------------|
D-5-3h5-3h5--6-5h6-5h6--5-3h5-3h5-3-0------------------|

solo riff
G------------------------------------------------------|
D------------------------------------------------------|
A-3h5—-3h5—-3h5--3h5--3h57-----------------------------|
D------------------------------------------------------|


order of riffs:
main riff x 12
bridge x 1
main Riff x 12
bridge x 1
main Riff x 8
alternate Bridge x 1
main Riff x 4
solo Riff x 4
main Riff x 8



Song: Set Me Free(#9) Tuning: E,A,D,G.

Intro
|-----------------------|----
|-----------------------|----
|-s12--s12---s12---s12--|----
|-----------------------|----

.        |Main Riff
---------|----------------------------------|
---------|----------------------------------|
--3h4h5--|-0---0-3-3-4-4-------------6p5p4--|
---------|---------------3-3-4-4-5-5--------|

 Chorus fig 1
|----------------------------------------------------|
|----------------------------------------------------|
|--5-5-5-5-5-5---------------------------------------|
|--------------6-6-6-6-6-6--8-8-8-8-8-8--3-3-3-2-3-5-|

|----------------------------------------------------|
|----------------------------------------------------|
|--5-5-5-5-5-5--------------8-8-8-8-8-8-8-8-8---7-7-7|
|--------------6-6-6-6-6-6---------------------------|
   Fig 2(listen to the song for time)
|-------------------------------------|
|--12-12-12-12-12-12-12-12-12-12-12-12|
|-------------------------------------|
|-------------------------------------|

 Bridge Fig 1
|------------------------------------------|
|------------------------------------------|
|------------------------------------------|
|-1-1-1-1--0-0-0-0--3-3-3-3-3-3-3-3-0--1---|

  Fig 2(last time:)
|------------------------------------------|
|------------------------------------------|
|------------------------------------------|
|-1-1-1-1--0-0-0-0--3s5-5-5-5-5-5-5-5------|

 Solo fig 1
|------------------|
|------------------|
|-0-0-0-0-0-0-6p5--|
|------------------|
    Fig 2(last time:)
|------------------------------|
|------------------------------|
|-0-0-0-0-0-0-6p5--0--3--5--7--|
|------------------------------|

  End
|----------------------------------|
|----------------------------------|
|----------------------------1--1--|
|-1---1-0-0-1-1-0-0-1-1-0-0--------|

  End on A|---0-------------|

Order Of Riffs:
Intro
Main Riff x12
Chorus  fig 1 x1
Main Riff x10
Chorus  fig 1 x2
Bridge Fig 1 x3 Fig 2 x1
Solo fig 1 x9 fig 2 x1
Chorus fig 1 x2 fig 2 x2
End


Song: You Got no Right(#10)
Sorry, this is the only song I couldn’t get/tab for you. I thought about putting in a
chord pattern, but that’s the guitar chord pattern so I left it out. If you have a tab,
please put it up.



Song: Slither(#11) Tuning: D,A,D,G.


Intro Part 1 
G|-----------------|----------------||
D|*----------------|---------------*||
A|*--------8-8-8---|-------8-8-8-8-*||
D|-0-0-0-0-------0-|0-0-0-0---------||

Intro Part 2 
G|-----------------||
D|-----------------||
A|---------8-8-8---||
D|-0-0-0-0-------0-||

Intro Part 3/ Main Riff 
G|-----------------|----------------||
D|-----------------|----------------||
A|-----------------|----------------||   X4 
D|-0-3-4-0-6-7-0-10|-0-6-7-0-5-0-3-4||

1st and 2nd Verse
G|-----------------|----------------||
D|-----------------|----------------|| 
A|-----------------|----------------||   X8
D|-0-3-4-0-6-7-0-10|-0-6-7-0-5-0-3-4||

Chorus

|-----------------|-----------------|-----------------|-----------------|
|-----------------|-----------------|-----------------|-----------------|
|-----------------|---------------0-|-3-----3-----3-3-|---333-3-3-5-3-0-|
|-0-----0-----0-0-|---0-0-----0-0---|-----------------|-----------------|

|-----------------|-----------------|-----------------|-----------------|
|-----------------|-----------------|-----------------|-----------------|
|-2-----2-----2-2-|---2-2-223-3-3-3-|-----------------|-------------0---|
|-----------------|-----------------|-0-----0-----0-0-|---0-0---0-0-----|


Solo
|-----------------|-----------------|-----------------|-----------------|
|-----------------|-----------------|-----------------|-----------------|
|-5-5-5---5-5-5-5-|---5-5---5-5-0-2-|-3---3---3-3-3-3-|---3-3---3-5-3-0-|
|-----------------|-----------------|-----------------|-----------------|

|-----------------|-----------------|-----------------|-----------------|
|-----------------|-----------------|-----------------|-----------------|
|-2-2-2---2-2-2-2-|-2-2---2-3-3-333-|-----------------|---5-3-0-5-3-2---|
|-----------------|-----------------|-0-0-0---0-0-0---|-----------------|

|-----------------|-----------------|-----------------|-----------------|
|-----------------|-----------------|-----------------|-------023-2-0---|
|-----------------|---------------2-|-3---3-3---3-3---|-3-3-3---------3-|
|-0---0-0---0-0-0-|---0-0-0---0-0---|-----------------|-----------------|

|-----------------|-----------------|-----------------|-----------------|
|-----------------|-----------------|-----------------|-----------------|
|-2---2---2-2-2-2-|---2-2---3-3-333-|-5---5---5-5-----|---8-8---10101212|
|-----------------|-----------------|-------------0-0-|-0---------------|

            


3rd Verse/Outro 
G|-----------------|-----------------||
D|-----------------|-----------------||
A|-----------------|-----------------||  X 3 
D|-0-3-4-0-6-7-0-10|-0-6-7-0-5-0-3-4-||

G|-------------------|----------------||
D|-------------------|----------------||
A|-------------------|----------------||
D|-0-10-12-0-9-10-0-7|-0-6-7-0-5-0-3-4||

End on an open D 


Structure
Intro part 1 X7
Intro Part 2 
Main riff
Ist Verse
Chorus
Main Riff
2nd Verse
Chorus        X2
Intro Part 1  X3
Intro Part 2
Solo
3rd Verse
Chorus        X2



Song: Dirty little Thing(#12) Tuning: E,A,D,G.

Intro:
G|----999999999999999999999999999-----|
D|------------------------------------|
A|------------------------------------|
E|------------------------------------|

Verse:
G|------------------------------------|  
D|------------------------------------|      
A|------------------------------------| x4
E|-0--3--0--5--0--6--0--5--3/5---3----|

Prechorus:
G|------------------------------------|  
D|------------------------------------|
A|------------------------------------| x2
E|-5--5---55---5---5---5----5---5---5-|

Verse:
G|------------------------------------|  
D|------------------------------------|
A|------------------------------------| x4
E|-0--3--0--5--0--6--0--5--3/5---3----|

Prechorus:
G|------------------------------------|  
D|------------------------------------|       
A|-3333333333-------------------------|
E|--------------55555555555-----------|

Chorus:
|-----------------------------------------------|
|-----------------------------------------------|
|--------3----------5--------3---2--------------|
|-0------------0---------0----------0--5--0--3--|

Pre-Verse:
|----999999999999999999999999999-----|
|------------------------------------|
|------------------------------------|
|------------------------------------|

Verse:
G|------------------------------------|  
D|------------------------------------|
A|------------------------------------| x4
E|-0--3--0--5--0--6--0--5--3/5---3----|

Prechorus:
G|------------------------------------|  
D|------------------------------------|
A|------------------------------------| x2
E|-5--5---55---5---5---5----5---5---5-|

Verse:
G|------------------------------------|  
D|------------------------------------|
A|------------------------------------| x4
E|-0--3--0--5--0--6--0--5--3/5---3----|

Prechorus:
G|------------------------------------|  
D|------------------------------------|       
A|-3333333333-------------------------|
E|--------------55555555555-----------|

Chorus:
G|-----------------------------------------------|
D|-----------------------------------------------|
A|--------3----------5--------3---2--------------|
E|-0------------0---------0----------0--5--0--3--|

Solo:
G|-----------------------------------------------|
D|-----------------------------------------------|
A|-----------------------------------------------|
E|-000000000000000000000000000000000-------------|

G|-----------------------------------------------|
D|-----------------------------------------------|
A|-----------------------333333333333333---------|
E|-000000000000000-------------------------------|

Chorus:
G|-----------------------------------------------|
D|-----------------------------------------------|
A|--------3----------5--------3---2--------------|
E|-0------------0---------0----------0--5--0--3--|

End.
Song: Loving the Alien(#13) Tuning: E,A,D,G.

Intro:
G|-----------------------------------------------------------|
D|--5-5------------------------------------------------------|
A|--------3--------------------------------------------------|
E|-----------------------------------------------------------|

Verse:
G|------------------------------------------------------------|
D|------------------------------------------------------------|
A|----3-3-3-3------3-3--------------------0-0-0-0-0------0-0--|
E|------------------------------------------------------------|

G|------------------------------------------------------------|
D|------------------------------------------------------------|
A|------------------------------------------------------------|
E|----0-0-0-0-0------0-0-----------------3-3-3-3-3------------|

G|------------------------------------------------------------|
D|------------------------------------------------------------|
A|----0-1-3------3-3-3-3----------3-5------0-0-0-0-0----------|
E|------------------------------------------------------------|

G|------------------------------------------------------------|
D|------------------------------------------------------------|
A|----3-------------------------------------------------------|
E|---------0-0-0-0-0-0---------------------3-3-3-3-3-3--------|

Chorus:
G|------------------------------------------------------------|
D|------------------------------------------------------------|
A|--------------3-2-0-2-0-------------------------------------|
E|----1-1-1------------------3-3-3-3-3-3-3--------------------|

G|------------------------------------------------------------|
D|------------------------------------------------------------|
A|--------------3-2-0-2-0-------------------------------------|
E|----1-1-1------------------3-3-3-3-3-3-3--------------------|

G|------------------------------------------------------------|
D|------------------------------------------------------------|
A|--------------3-2-0-2-0-------------------------------------|
E|----1-1-1------------------3-3-3-3-3-3-3--------------------|

G---------------------------------------------|
D-------------3-2-----------------------------|   x 2
A--3-3-33-33------3--2-2-22-22----------------|
E---------------------------------------------|

Verse:
G|------------------------------------------------------------|
D|------------------------------------------------------------|
A|----3-3-3-3------3-3------------------0-0-0-0-0------0-0----|
E|------------------------------------------------------------|

G|------------------------------------------------------------|
D|------------------------------------------------------------|
A|------------------------------------------------------------|
E|----0-0-0-0-0------0-0-----------------3-3-3-3-3------------|

G|------------------------------------------------------------|
D|------------------------------------------------------------|
A|----0-1-3---3-3-3---3-5---0-0-0-0-0---3-2-------------------|
E|------------------------------------------------------------|

G|------------------------------------------------------------|
D|------------------------------------------------------------|
A|------------------------------------------------------------|
E|----0-0-0-0-0------0-0-----------------3-3-3-3-3------------|

Chorus:
G|------------------------------------------------------------|
D|------------------------------------------------------------|
A|--------------3-2-0-2-0-------------------------------------|
E|----1-1-1------------------3-3-3-3-3-3-3--------------------|

G|------------------------------------------------------------|
D|------------------------------------------------------------|
A|--------------3-2-0-2-0-------------------------------------|
E|----1-1-1------------------3-3-3-3-3-3-3--------------------|

G|------------------------------------------------------------|
D|------------------------------------------------------------|
A|--------------3-2-0-2-0-------------------------------------|
E|----1-1-1------------------3-3-3-3-3-3-3--------------------|

G---------------------------------------------|
D-------------3-2-----------------------------|   x 2
A--3-3-33-33------3--2-2-22-22----------------|
E---------------------------------------------|

Bridge:
G|------------------------------------------------------------|
D|------------------------------------------------------------|
A|----5-5-5-5-5---3-3-3-3-3---2-2-2-2-2---5-5-5-5-5-----------|
E|------------------------------------------------------------|

G|------------------------------------------------------------|
D|------------------------------------------------------------|
A|----5-5-5-5-5---3-3-3-3-3---2-2-2-2-2---5-5-5-5-5-----------|
E|------------------------------------------------------------|

Interlude:
G|------------------------------------------------------------|
D|------------------------------------------------------------|
A|----0-5-5-5-5-5---0-3-3-3-3-3---0-2-2-2-2-2---0-5-5-5-5-5---|
E|------------------------------------------------------------|

G|--------------------------------------------------------------|
D|--------------------------------------------------------------|
A|----0-5-5-5-5-5---0-3-3-3-3-3---0-2-2-2-2-2---0-5~~~~~--------|
E|--------------------------------------------------------------|

Chorus:
G---------------------------------------------|
D-------------3-2-----------------------------|   x 2
A--3-3-33-33------3--2-2-22-22----------------|
E---------------------------------------------|
comments
print report bad tab
1 comment total.
0 reply
BucketheadRules wrote on November 22 2006, 06:04 pm

Illegal i Song should be in drop D.

I want to post or [tab]
guest
You may want to rate the tab now too:
select rating
Please do not post tabs as comments. Select "correction" instead!