Oops, an error
Loading. Please wait.

Dirty Little Thing Tab

ver4
ver4

Solo

Whole song

Interactive

More versions @911Tabs.com
729 views 3 this week
no commentswrite comment
1 2 3 4 5
excellent!
x 2
add to favorites launch autoscroll
font size
0
reset
Autoscroll
+/-
esc
set tempo
stop
Contributor
WARNING: You are trying to view
                                    content from Ultimate-Guitar.com
                                    in an unauthorized application,
                                    which is prohibited.

                                    Please use an official Ultimate
                                    Guitar Tabs application for iPhone,
                                    iPad or Android to access legitimate
                                    chords, guitar, bass, and drum tabs
                                    from Ultimate-Guitar.com database.

                                    Type "ultimate guitar tabs" in Apple
                                    App Store's or Android Market's
                                    search to find the application.
#----------------------------------PLEASE NOTE---------------------------------#
#This file is the author's own work and represents their interpretation of the #
#song. You may only use this file for private study, scholarship, or research. #
#------------------------------------------------------------------------------#

DIRTY LITTLE THING
As recorded by Velvet Revolver
(From the 2004 Album CONTRABAND)

Transcribed by A Bit Of Finger
        

Words and Music by Scott Weiland, Slash, Duff Mckagan, Matt Sorum, and Keith Nelson

Gtr I (E A D G B E) - 'Untitled'
Gtr II (E A D G B E) - 'Untitled'
Gtr III (E A D G B E) - 'Untitled'

 Intro
  Fast Rock Q=168
                   G    A    Bb        A   G A G
 4/4
  Gtr I
  Wx4            E Q  E Q  E E   +E  E E E E E Q
|------------||----------------|--------------------||
|------------||o---------------|-------------------o||
|------------||----4----6----7-|-(7)---6---4s6-4----||
|------------||----5----7----8-|-(8)---7---5s7-5----||
|------------||o---5----7----8-|-(8)---7---5s7-5---o||
|------------||--0-3--0-5--0-6-|-(6)-0-5-0-3s5-3----||


         A    Bb        A   G A G           A    Bb
  Gtr II
  E Q  E Q  E E   +E  E E E E E Q    E Q  E Q  E E
|---------------|------------------|---------------|
|---------------|------------------|---------------|
|---------------|------------------|---------------|
|---------------|------------------|---------------|
|---5----7----8-|-(8)---7---5s7-5--|---5----7----8-|
|-0-3--0-5--0-6-|-(6)-0-5-0-3s5-3--|-0-3--0-5--0-6-|
|
| Gtr I
| E Q  E Q  E E   +E  E E E E E Q    E Q  E Q  E E
|---------------|------------------|---------------|
|---------------|------------------|---------------|
|---4----6----7-|-(7)---6---4s6-4--|---4----6----7-|
|---5----7----8-|-(8)---7---5s7-5--|---5----7----8-|
|---5----7----8-|-(8)---7---5s7-5--|---5----7----8-|
|-0-3--0-5--0-6-|-(6)-0-5-0-3s5-3--|-0-3--0-5--0-6-|


                     Verse 1
        A   Eb5         G    A    Bb        A   G A G
            |-3-|
  +E  E E E Q Q Q     E Q  E Q  E E   +E  E E E E E Q   4x
|-----------------||----------------|-------------------||
|-----------------||o---------------|------------------o||
|-----------9-9-9-||----------------|-------------------||
|-----------8-8-8-||----------------|-------------------||
|-(8)---7---7-7-7-||o---5----7----8-|-(8)---7---5s7-5--o||
|-(6)-0-5-0-------||--0-3--0-5--0-6-|-(6)-0-5-0-3s5-3---||
|
|           PM--|
|           |-3-|
| +E  E E E Q Q Q     E Q  E Q  E E   +E  E E E E E Q   4x
|-----------------||----------------|-------------------||
|-----------------||o---------------|------------------o||
|-(7)---6---------||----4----6----7-|-(7)---6---4s6-4---||
|-(8)---7---2-2-2-||----5----7----8-|-(8)---7---5s7-5---||
|-(8)---7---2-2-2-||o---5----7----8-|-(8)---7---5s7-5--o||
|-(6)-0-5-0-0-0-0-||--0-3--0-5--0-6-|-(6)-0-5-0-3s5-3---||


    A5
    Gtrs I, II
    E   E E E    E    E E E    E  E E   E  E      E  E E
||--------------------------|----------------------------|
||o-------------------------|----------------------------|
||--------------------------|----------------------------|
||--7---7-7-7----7----7-7-7-|----------------------------|
||o-7---7-7-7----7----7-7-7-|----------------------------|
||--5---5-5-5----5----5-5-5-|-----x-x---x--x------x--x-x-|
|
|   Gtr III
|                ~~~~~~~~~~~~~~~~~
|   Q.      E    H            +Q    Q     +E     +E  E E
||--------------------------|----------------------------|
||o-------------------------|----------------------------|
||--4b6-----4pb6-4pb6-------|-(4)---4b6---(4)pb6r(4)-2-2-|
||--------------------------|----------------------------|
||o-------------------------|----------------------------|
||--------------------------|----------------------------|


  Ab5                    D5/A
  E   E E E  E      E  E E      E     E E E Q    Q
|----------------------------|--------------------------||
|----------------------------|-------------------------o||
|----------------------------|--------------------------||
|-7---7-7-7--7------7--7-7---|--------7-----------------||
|-6---6-6-6--6------6--6-5---|--------5-----4b5--4-----o||
|-5---5-5-5--5------5--5-5---|--------5-x-x-------------||
|
|                        ~~~~~~~~~~~~~
| H         +E     +E  E E     +H           Q    Q
|----------------------------|--------------------------||
|-4--------------------------|--------------3----5-----o||
|-6b8-------(6)pb8r(6)-4-5b7-|-(5)pb7-------5b7--7b9----||
|----------------------------|--------------------------||
|----------------------------|-------------------------o||
|----------------------------|--------------------------||


   Verse 2
      G5   A5   Bb5       A5  G5A5G5          A5   Bb5       A5  G5AbG5
    E Q  E Q  E E   +E  E E E E E Q    E Q  E Q  E E   +E  E E E E E Q
||----------------|------------------|---------------|--------------------||
||o---------------|------------------|---------------|-------------------o||
||----------------|------------------|---------------|--------------------||
||----------------|------------------|---------------|--------------------||
||o---5----7----8-|-(8)---7---5s7-5--|---5----7----8-|-(8)---7---5s7-5---o||
||--0-3--0-5--0-6-|-(6)-0-5-0-3s5-3--|-0-3--0-5--0-6-|-(6)-0-5-0-3s5-3----||


 Pre-Chorus
  C5                             A5
  Gtr I
  Q  Q   E E E E   E E Q   E E E E   +E  E Q   E E E E
|----------------|-----------------|-------5-----------|
|----------------|-----------------|-------5-----------|
|-5--5---5-----5-|---5-5---5-------|-------------------|
|-5--5---3h5---5-|---5-5---3h5---7-|-(7)-7-----7-----7-|
|-3--3---3-----3-|---3-3---3-----7-|-(7)-7-----5h7---7-|
|----------------|-------------0-5-|-(5)-5-----5-----5-|
|
| Gtr II
| Q  E E Q   E E   E E E E E E E E   +E  E E E Q   E E
|----------------|-----------------|-------------------|
|----------------|-----------------|-------------------|
|----------------|-----------------|-----2-----2-----2-|
|-5--5-5-5---5-5-|-5-5-5-5-5-4-3-2-|-(2)-2-----2-----2-|
|-3--3-3-3---3-3-|-3-3-3-3-3-2-1-0-|-(0)-0-0-0-0---0-0-|
|----------------|-----------------|-------------------|


                             Chorus
                              E            C5/G
   E  E E E E   +S  S E E     H      Q   E  E    +H.      E E
|-------------------------||--0---------------|---------------|
|---------5-7b8r(7)p5-7---||o-0---------------|---------------|
|---------5-7b9r(7)p5-7---||--1-------------5-|--(5)----------|
|-----7-7---------------0-||--2------2---2--5-|--(5)------x-x-|
|-----7-7-----------------||o-2------2---2--3-|--(3)------x-x-|
|-----5-5-----------------||--0------0---0--3-|--(3)------x-x-|
|
|                                PM------|  ~~~~~~~~~
| +E  E E E Q         E E     Q  E E E E E  E    +W
|-------------------------||------------------|---------------|
|-------------------------||o-----------------|---------------|
|-(2)-2-----2---------2-2-||---------------11-|-(11)----------|
|-(2)-2-----2---------2-2-||---------------10-|-(10)----------|
|-(0)-0-0-0-0---------0-0-||o-7--7-7-7-7-7----|---------------|
|-------------------------||------------------|---------------|


  E            D5/A                    E            C5/G
  H      Q   E E   +H.           E E   H      Q   E  E    +H.        E   E
|----------------|-------------------|-----------------|-------------------|
|----------------|-------------------|-----------------|-------------------|
|--------------7-|-(7)---------------|---------------5-|--(5)--------------|
|-2------2---2-7-|-(7)-----------x-x-|-2------2---2--5-|--(5)--------x---x-|
|-2------2---2-5-|-(5)-----------x-x-|-2------2---2--3-|--(3)--------x---x-|
|-0------0---0-5-|-(5)-----------x-x-|-0------0---0--3-|--(3)--------x---x-|
|
|    PM------|                            PM------|  ~~~~~~~~~
| Q  E E E E E E   +Q   E E +H         Q  E E E E E  E    +H.       +Q
|----------------|------0------------|-----------------|-------------------|
|----------------|-------------------|-----------------|-------------------|
|--------------7-|-(7)----7-(7)------|--------------11-|-(11)------(11)\---|
|--------------7-|-(7)---------------|--------------10-|-(10)------(10)\---|
|-7--7-7-7-7-7-5-|-(5)---------------|-7--7-7-7-7-7----|-------------------|
|----------------|-------------------|-----------------|-------------------|


               1.                2.
  G5             Bb     A          Bb     F
  H    Q  Q    E Q.   E Q.       E Q.   E Q.
|------------|----------------||---------------||
|------------|---3------2----o||---3------1----||
|------------|-x-3----x-2-----||-x-3------2----||
|-5----5--5--|-x-3----x-2-----||-x-3----x-3----||
|-5----5--5--|-x-1----x-0----o||-x-1----x-3----||
|-3----3--3--|----------------||--------x-1----||
|
| W            E Q.   E Q.       E Q.   E Q.
|------------|----------------||---------------||
|------------|---3------2----o||---3------1----||
|-0----------|-x-3----x-2-----||-x-3------2----||
|-0----------|-x-3----x-2-----||-x-3----x-3----||
|-x----------|-x-1----x-0----o||-x-1----x-3----||
|-3----------|----------------||--------x-1----||


      G    A    Bb        A   G A G             A    Bb
    E Q  E Q  E E   +E  E E E E E Q   3x E Q  E Q  E E
||----------------|-------------------||---------------|
||o---------------|------------------o||---------------|
||----4----6----7-|-(7)---6---4s6-4---||---4----6----7-|
||----5----7----8-|-(8)---7---5s7-5---||---5----7----8-|
||o---5----7----8-|-(8)---7---5s7-5--o||---5----7----8-|
||--0-3--0-5--0-6-|-(6)-0-5-0-3s5-3---||-0-3--0-5--0-6-|
|
|   E Q  E Q  E E   +E  E E E E E Q   3x E Q  E Q  E E
||----------------|-------------------||---------------|
||o---------------|------------------o||---------------|
||----------------|-------------------||---------------|
||----------------|-------------------||---------------|
||o---5----7----8-|-(8)---7---5s7-5--o||---5----7----8-|
||--0-3--0-5--0-6-|-(6)-0-5-0-3s5-3---||-0-3--0-5--0-6-|


                     Verse 3
        A   Eb5         G5   A5   Bb5       A5  G5A5G5
            PM--|
            |-3-|
  +E  E E E Q Q Q     E Q  E Q  E E   +E  E E E E E Q   4x
|-----------------||----------------|-------------------||
|-----------------||o---------------|------------------o||
|-(7)---6---------||----------------|-------------------||
|-(8)---7---2-2-2-||----------------|-------------------||
|-(8)---7---2-2-2-||o---------------|------------------o||
|-(6)-0-5-0-0-0-0-||--0-3--0-5--0-6-|-(6)-0-5-0-3h5-3---||
|
|           |-3-|
| +E  E E E Q Q Q     E Q  E Q  E E   +E  E E E E E Q   4x
|-----------------||----------------|-------------------||
|-----------------||o---------------|------------------o||
|-----------9-9-9-||----------------|-------------------||
|-----------8-8-8-||----------------|-------------------||
|-(8)---7---7-7-7-||o---5----7----8-|-(8)---7---5s7-5--o||
|-(6)-0-5-0-------||--0-3--0-5--0-6-|-(6)-0-5-0-3s5-3---||


    A5
    Gtrs I, II
    E   E E E    E    E E E    E  E E   E  E      E  E E
||--------------------------|----------------------------|
||o-------------------------|----------------------------|
||--------------------------|----------------------------|
||--7---7-7-7----7----7-7-7-|----------------------------|
||o-7---7-7-7----7----7-7-7-|----------------------------|
||--5---5-5-5----5----5-5-5-|-----x-x---x--x------x--x-x-|
|
|   Gtr III
|                ~~~~~~~~~~~~~~~~~
|   Q.      E    H            +Q    Q     +E     +E  E E
||--------------------------|----------------------------|
||o-------------------------|----------------------------|
||--4b6-----4pb6-4pb6-------|-(4)---4b6---(4)pb6r(4)-2-2-|
||--------------------------|----------------------------|
||o-------------------------|----------------------------|
||--------------------------|----------------------------|


  Ab5                    D5/A
  E   E E E  E      E  E E      E     E E E Q    Q
|----------------------------|--------------------------||
|----------------------------|-------------------------o||
|----------------------------|--------------------------||
|-7---7-7-7--7------7--7-7---|--------7-----------------||
|-6---6-6-6--6------6--6-5---|--------5-----4b5--4-----o||
|-5---5-5-5--5------5--5-5---|--------5-x-x-------------||
|
|                        ~~~~~~~~~~~~~
| H         +E     +E  E E     +H           Q    Q
|----------------------------|--------------------------||
|-4--------------------------|--------------3----5-----o||
|-6b8-------(6)pb8r(6)-4-5b7-|-(5)pb7-------5b7--7b9----||
|----------------------------|--------------------------||
|----------------------------|-------------------------o||
|----------------------------|--------------------------||


   Verse 4
       G5       A5       Bb5         A5    G5 A5 G5
     E  Q     E  Q     E  E   +E   E  E  E  E  E  Q     3x
||--------------------------|---------------------------||
||o-------------------------|--------------------------o||
||--------------------------|---------------------------||
||--------------------------|---------------------------||
||o-----5--------7--------8-|-(8)-----7-----5s=7--5----o||
||---0--3-----0--5-----0--6-|-(6)--0--5--0--3s=5--3-----||
|
|    e  e  e  e  e  e  e  e    e   e  e  e  e  e  e  e  3x
||--24-24-24-24-24-24-24-24-|-24--24-24-24-24-24-24-24--||
||o-24-24-24-24-24-24-24-24-|-24--24-24-24-24-24-24-24-o||
||--------------------------|---------------------------||
||--------------------------|---------------------------||
||o-------------------------|--------------------------o||
||--------------------------|---------------------------||


              A5       Bb5         A5     G5  A5  G5
   E  Q     E  Q     E  E   +E   E  E  E   E   E   Q
|-------------------------|-----------------------------|
|-------------------------|-----------------------------|
|-------------------------|-----------------------------|
|-------------------------|-----------------------------|
|-----5--------7--------8-|-(8)-----7------5s==7---5----|
|--0--3-----0--5-----0--6-|-(6)--0--5--0---3s==5---3----|
|
|  e  e  e  e  e  e  e  e    e   e  E  E   e   e   q
|-24-24-24-24-24-24-24-24-|-24--24-24-22\-20\-17\-12\---|
|-24-24-24-24-24-24-24-24-|-24--24-24-22\-20\-17\-12\---|
|-------------------------|-----------------------------|
|-------------------------|-----------------------------|
|-------------------------|-----------------------------|
|-------------------------|-----------------------------|


 Pre-Chorus
  C5                             A5
  Gtr I
  Q  Q   E E E E   E E Q   E E E E   +E  E Q   E E E E
|----------------|-----------------|-------5-----------|
|----------------|-----------------|-------5-----------|
|-5--5---5-----5-|---5-5---5-------|-------------------|
|-5--5---3h5---5-|---5-5---3h5---7-|-(7)-7-----7-----7-|
|-3--3---3-----3-|---3-3---3-----7-|-(7)-7-----5h7---7-|
|----------------|-------------0-5-|-(5)-5-----5-----5-|
|
| Gtr II
| Q  E E Q   E E   E E E E E E E E   +E  E E E Q   E E
|----------------|-----------------|-------------------|
|----------------|-----------------|-------------------|
|----------------|-----------------|-----2-----2-----2-|
|-5--5-5-5---5-5-|-5-5-5-5-5-4-3-2-|-(2)-2-----2-----2-|
|-3--3-3-3---3-3-|-3-3-3-3-3-2-1-0-|-(0)-0-0-0-0---0-0-|
|----------------|-----------------|-------------------|


                             Chorus
                              E            C5/G
   E  E E E E   +S  S E E     H      Q   E  E    +H.      E E
|-------------------------||--0---------------|---------------|
|---------5-7b8r(7)p5-7---||o-0---------------|---------------|
|---------5-7b9r(7)p5-7---||--1-------------5-|--(5)----------|
|-----7-7---------------0-||--2------2---2--5-|--(5)------x-x-|
|-----7-7-----------------||o-2------2---2--3-|--(3)------x-x-|
|-----5-5-----------------||--0------0---0--3-|--(3)------x-x-|
|
|                                PM------|  ~~~~~~~~~
| +E  E E E Q         E E     Q  E E E E E  E    +W
|-------------------------||------------------|---------------|
|-------------------------||o-----------------|---------------|
|-(2)-2-----2---------2-2-||---------------11-|-(11)----------|
|-(2)-2-----2---------2-2-||---------------10-|-(10)----------|
|-(0)-0-0-0-0---------0-0-||o-7--7-7-7-7-7----|---------------|
|-------------------------||------------------|---------------|


  E            D5/A                    E            C5/G
  H      Q   E E   +H.           E E   H      Q   E  E    +H.        E   E
|----------------|-------------------|-----------------|-------------------|
|----------------|-------------------|-----------------|-------------------|
|--------------7-|-(7)---------------|---------------5-|--(5)--------------|
|-2------2---2-7-|-(7)-----------x-x-|-2------2---2--5-|--(5)--------x---x-|
|-2------2---2-5-|-(5)-----------x-x-|-2------2---2--3-|--(3)--------x---x-|
|-0------0---0-5-|-(5)-----------x-x-|-0------0---0--3-|--(3)--------x---x-|
|
|    PM------|                            PM------|  ~~~~~~~~~
| Q  E E E E E E   +Q   E E +H         Q  E E E E E  E    +H.       +Q
|----------------|------0------------|-----------------|-------------------|
|----------------|-------------------|-----------------|-------------------|
|--------------7-|-(7)----7-(7)------|--------------11-|-(11)------(11)\---|
|--------------7-|-(7)---------------|--------------10-|-(10)------(10)\---|
|-7--7-7-7-7-7-5-|-(5)---------------|-7--7-7-7-7-7----|-------------------|
|----------------|-------------------|-----------------|-------------------|


               1.                2.
  G5             Bb     A          Bb       F
                                 Gtrs I, II
  H    Q  Q    E Q.   E Q.       E Q.    E  Q.
|------------|----------------||-----------------||
|------------|---3------2----o||---3--------1----||
|------------|-x-3----x-2-----||-x-3--------2----||
|-5----5--5--|-x-3----x-2-----||-x-3-----x--3----||
|-5----5--5--|-x-1----x-0----o||-x-1-----x--3----||
|-3----3--3--|----------------||---------x--1----||
|
|                                Gtr III
| W            E Q.   E Q.       H       H
|------------|----------------||-----------------||
|------------|---3------2----o||-----------------||
|-0----------|-x-3----x-2-----||-----------------||
|-0----------|-x-3----x-2-----||-----------------||
|-x----------|-x-1----x-0----o||-----------------||
|-3----------|----------------||--------17\------||


 Guitar Solo
  F#5
  Gtr III
           |-3-|             |-3-|           |-3-|                     |-3-|
  E. S S S S S S S S S S S S S S S   S S S S S S S S S   +S  S S S S S S S S
|----------------------------------|------------------------------------------|
|----------------------------------|---------------------------------------2--|
|----------------------------------|-------2h4p2---2-3b4-(3)-2h3p2---2-3h4----|
|--------------------2h4p2---2h3h4-|-2h3h4-------4-----------------4----------|
|------2h3h4-2-2h3h4-------4-------|------------------------------------------|
|-2--4-----------------------------|------------------------------------------|
|
| Gtr I
| Q    Q         E   E   E   E       E   E   Q            E    E   E   E
|----------------------------------|------------------------------------------|
|----------------------------------|------------------------------------------|
|----------------------------------|------------------------------------------|
|-4----4---------4---4---x---4-----|-----4---4------------4----4---x---4------|
|-4----4---------4---4---x---4-----|-----4---4------------4----4---x---4------|
|-2----2---------2---2---x---2-----|-----2---2------------2----2---x---2------|
|
| Gtr II
|      PM--------------------------------------------------------------|
| Q    E   E     E   E   E   E       E   E   E     E      E    E   E   E
|----------------------------------|------------------------------------------|
|----------------------------------|------------------------------------------|
|----------------------------------|------------------------------------------|
|----------------------------------|------------------------------------------|
|-4--------------------------------|------------------------------------------|
|-2----2---2-----2---2---2---2-----|-2---2---2-----2------2----2---2---2------|


                                       |-3-|
   S  S S S S S S S S S S S   +S     S S S S
|--2--------2-------2---2--------------------|
|-----5p2---2-5p2---2-5---5b7-(5)pb7-2h5p2---|
|---------4-------4------------------------4-|
|--------------------------------------------|
|--------------------------------------------|
|--------------------------------------------|
|
| +E    E   Q       E   E      E       E
|--------------------------------------2-----|
|--------------------------------------2-----|
|--------------------------------------------|
|-(4)---4---4-------4---4------4-------------|
|-(4)---4---4-------4---4------4-------------|
|-(2)---2---2-------2---2------2-------------|
|
|  PM-----------------------------------------
|  E    E   E   E   E   E      E       E
|--------------------------------------------|
|--------------------------------------------|
|--------------------------------------------|
|--------------------------------------------|
|--------------------------------------------|
|--2----2---2---2---2---2------2-------2-----|


                                      |--3--|
   S  S S S   +S  S S S  S  E     +S  E E   E
|--2-------------------------------------------|
|-----5p2--------------------------------------|
|---------4b6r(4)p2---4-----2b3---(2)-4-2---3s=|
|-------------------4----4---------------------|
|----------------------------------------------|
|----------------------------------------------|
|
| +E    E      E    E   +E      E     E   E
|-(2)------------------------------------------|
|-(2)---------------2---(2)--------------------|
|-------------------3---(3)--------------------|
|-------4------4----------------4-----4---4----|
|-------4------4----------------4-----4---4----|
|-------2------2----------------2-----2---2----|
|
|-----------------------------------------|
|  E    E      E    E    E      E     E   E
|----------------------------------------------|
|----------------------------------------------|
|----------------------------------------------|
|----------------------------------------------|
|----------------------------------------------|
|--2----2------2----2----2------2-----2---2----|


   |--3---|
   E  E   E S S S  S  S  S S   S  S  S  S   S
|---------------------------------------------|
|-----5-----7-7p5----10-10p7-----12-12p10-----|
|--6------6-------/9---------/11----------/14-|
|---------------------------------------------|
|---------------------------------------------|
|---------------------------------------------|
|
| +E    E   Q         E    E      E     E
|---------------------------------------------|
|---------------------------------------------|
|---------------------------------------------|
|-(4)---4---4---------4----4------x-----4-----|
|-(4)---4---4---------4----4------x-----4-----|
|-(2)---2---2---------2----2------x-----2-----|
|
|  PM------------------------------------------
|  E    E   E   E     E    E      E     E
|---------------------------------------------|
|---------------------------------------------|
|---------------------------------------------|
|---------------------------------------------|
|---------------------------------------------|
|--2----2---2---2-----2----2------2-----2-----|


   S   S  S   S  S  S  S  S  E  Q       S  S
|---------------------------------------------|
|-14--14-12-----17-17p14----17-17b19---17-14--|
|-----------/16----------16-------------------|
|---------------------------------------------|
|---------------------------------------------|
|---------------------------------------------|
|
| +E      E      Q           E  E    E  E
|---------------------------------------------|
|---------------------------------------------|
|---------------------------------------------|
|-(4)-----4------4-----------4--4----x--4-----|
|-(4)-----4------4-----------4--4----x--4-----|
|-(2)-----2------2-----------2--2----x--2-----|
|
|--------------------------------------|
|  E      E      E     E     E  E    E  E
|---------------------------------------------|
|---------------------------------------------|
|---------------------------------------------|
|---------------------------------------------|
|---------------------------------------------|
|--2------2------2-----2-----2--2----2--2-----|


    |--3---|
   +S   S  S  S  S  S     S  S  S  S  S      +S   +S   +S   S  S  S
|-------------------------------------------------------------------|
|-(14)h17p14----14-------14-----------------------------------------|
|------------17----16b17----17p16p14-16b18==(16)r(16)-(16)-14-16p14-|
|-------------------------------------------------------------------|
|-------------------------------------------------------------------|
|-------------------------------------------------------------------|
|
|   E         E     Q              E          E         E      E
|-------------------------------------------------------------------|
|-------------------------------------------------------------------|
|-------------------------------------------------------------------|
|-------------4-----4--------------4----------4---------x------4----|
|-------------4-----4--------------4----------4---------x------4----|
|-------------2-----2--------------2----------2---------x------2----|
|
|   PM---------------------------------------------------------------
|   E         E     E        E     E          E         E      E
|-------------------------------------------------------------------|
|-------------------------------------------------------------------|
|-------------------------------------------------------------------|
|-------------------------------------------------------------------|
|-------------------------------------------------------------------|
|---2---------2-----2--------2-----2----------2---------2------2----|


   |--3---|
   S   S  S  S  S  S  S  S  S   S  S  E    S  S       +E
|---------------------------------------------------------------||
|---------------------------------------------------------------||
|-----------14----16p14-16p14--------14---16-14b15---(14)pb15\--||
|-16--16p14----16--------------16-16----------------------------||
|---------------------------------------------------------------||
|---------------------------------------------------------------||
|
|                               ~~~
| +E         E     Q            H
|---------------------------------------------------------------||
|---------------------------------------------------------------||
|---------------------------------------------------------------||
|-(4)--------4-----4--------------------------------------------||
|-(4)--------4-----4--------------------------------------------||
|-(2)--------2-----2----------/19-------------------------------||
|
|-----------------------|
|                               |--------3---------|
|  E         E     E     E      Q       Q          Q
|---------------------------------------------------------------||
|---------------------------------------------------------------||
|---------------------------------------------------------------||
|---------------------------------------------------------------||
|-------------------------------4-------4----------4------------||
|--2---------2-----2-----2------2-------2----------2------------||


        G5               A5               Bb5
   |---3---|              |---3---|
   E  E    E  S  S  S  S  E  E    E  S  S  S  S
|-15p14p==12-14p12----12------------------------|
|------------------15----15-14---15p14p12-14p12-|
|-----------------------------------------------|
|-----------------------------------------------|
|-----------------------------------------------|
|-----------------------------------------------|
|
|  E    Q           E     Q          E     E
|-----------------------------------------------|
|-----------------------------------------------|
|-----------------------------------------------|
|-----------------------------------------------|
|-------5-----------------7----------------8----|
|--0----3-----------0-----5----------0-----6----|
|
|             PM---------------------------------
|  Q          E     E     E    E     E     E
|-----------------------------------------------|
|-----------------------------------------------|
|-----------------------------------------------|
|-----------------------------------------------|
|--2--------------------------------------------|
|--0----------0-----0-----0----0-----0-----0----|


               A5          G5       A5    G5
                            |--3--|
   S   S  S  S  S  S  S  S  S  S  S  S  S  S  S  S  S
|-------------------------------------------------------|
|-----12------------------------------------------------|
|-15-----15p14-15p14p12-14-12h14p12s11----12----11h12p==|
|--------------------------------------14----14---------|
|-------------------------------------------------------|
|-------------------------------------------------------|
|
| +E      E     E     E     E        E     Q
|-------------------------------------------------------|
|-------------------------------------------------------|
|-------------------------------------------------------|
|-------------------------------------------------------|
|-(8)-----------7-----------5s=======7-----5------------|
|-(6)-----0-----5-----0-----3s=======5-----3------------|
|
|-----------------------------------------------|
|  E      E     E     E     E        E     E     E
|-------------------------------------------------------|
|-------------------------------------------------------|
|-------------------------------------------------------|
|-------------------------------------------------------|
|-------------------------------------------------------|
|--0------0-----0-----0-----0--------0-----0-----0------|


                             A5               Bb5
               |--3--|                   |---3---|
   S  S  S  S  S  S  S  S  S  S  S  S  S E  E    E
|--------------------------------------------------|
|--------------------------------------------------|
|-11-11--------------------------------------------|
|-------12h14-11h12p11----11-----------------------|
|----------------------14----12h14-10-14-9------10-|
|------------------------------------------12------|
|
|  E     Q              E     Q          E    E
|--------------------------------------------------|
|--------------------------------------------------|
|--------------------------------------------------|
|--------------------------------------------------|
|--------5--------------------7---------------8----|
|--0-----3--------------0-----5----------0----6----|
|
|  PM-----------------------------------------------
|  E     E     E        E     E     E    E    E
|--------------------------------------------------|
|--------------------------------------------------|
|--------------------------------------------------|
|--------------------------------------------------|
|--------------------------------------------------|
|--0-----0-----0--------0-----0-----0----0----0----|


                  A5       G5 A5G5
                            ~~~
   |-----5------| |--3---|
   S  S  S   S  S E E    E  Q    E E
|-------------------------------------|
|-------------------------------------|
|-------------------------------------|
|-------------------------------------|
|-----9h10p==9----9-------------------|
|-12-----------12---9---10-12---\7-0--|
|
| +E       E      E   E     E E  Q
|-------------------------------------|
|-------------------------------------|
|-------------------------------------|
|-------------------------------------|
|-(8)-------------7---------5s7--5----|
|-(6)------0------5---0-----3s5--3----|
|
|----------------------------------|
|  E       E      E   E     E E  E E
|-------------------------------------|
|-------------------------------------|
|-------------------------------------|
|-------------------------------------|
|-------------------------------------|
|--0-------0------0---0-----0-0--0-0--|


                    A5          Bb5
   E     E  E  E     E  E  E     E
|-------12-12-------12-12-------12-|
|-------12-12-------12-12-------12-|
|-14b16-------14b16-------14b16----|
|----------------------------------|
|----------------------------------|
|----------------------------------|
|
|  E     Q     E     Q     E     E
|----------------------------------|
|----------------------------------|
|----------------------------------|
|----------------------------------|
|--------5-----------7-----------8-|
|--0-----3-----0-----5-----0-----6-|
|
|  PM-------------------------------
|  E     E  E  E     E  E  E     E
|----------------------------------|
|----------------------------------|
|----------------------------------|
|----------------------------------|
|----------------------------------|
|--0-----0--0--0-----0--0--0-----0-|


              A5         G5    A5   G5
   |---3----|  |---3---|  |---3---|  |---3---|
   E   E    E  E  E    E  E  E    E  E  E    E
|-15--14---12-14p12------12-15-----------------|
|-15--14---12-14p12------12-15------15-14---12-|
|---------------------15----15---12-15-14---12-|
|----------------------------------------------|
|----------------------------------------------|
|----------------------------------------------|
|
| +E     E     E    E     E    E     Q
|----------------------------------------------|
|----------------------------------------------|
|----------------------------------------------|
|----------------------------------------------|
|-(8)----------7----------5s===7-----5---------|
|-(6)----0-----5----0-----3s===5-----3---------|
|
|-----------------------------------------|
|  E     E     E    E     E    E     E    E
|----------------------------------------------|
|----------------------------------------------|
|----------------------------------------------|
|----------------------------------------------|
|----------------------------------------------|
|--0-----0-----0----0-----0----0-----0----0----|


                            A5       Bb5
   S      +S   +S   S  E  E  E  E  E  E
|---------------------------------------|
|-14b15==(14)r(14)p12-14----12-14-12-14-|
|-14b16==(14)r(14)p12-14----12-14-12-14-|
|------------------------14-------------|
|---------------------------------------|
|---------------------------------------|
|
|  E            Q         E  Q     E  E
|---------------------------------------|
|---------------------------------------|
|---------------------------------------|
|---------------------------------------|
|---------------5------------7--------8-|
|--0------------3---------0--5-----0--6-|
|
|  PM------------------------------------
|  E            E      E  E  E  E  E  E
|---------------------------------------|
|---------------------------------------|
|---------------------------------------|
|---------------------------------------|
|---------------------------------------|
|--0------------0------0--0--0--0--0--0-|


                A5    G5 A5        G5
                          ~~~~~
   S        +S   E  E  E  H
|--------------------------------------||
|-14pb14.5r(14)p12-14-12-15b17---------||
|-14pb14.5r(14)p12-14-12---------------||
|--------------------------------------||
|--------------------------------------||
|--------------------------------------||
|
| +E             E  E  E  E    E   Q
|--------------------------------------||
|--------------------------------------||
|--------------------------------------||
|--------------------------------------||
|-(8)---------------7-----5s===7---5---||
|-(6)------------0--5--0--3s===5---3---||
|
|---------------------|
|                         |----3-----|
|  E             E  E  E  Q      Q   Q
|--------------------------------------||
|--------------------------------------||
|--------------------------------------||
|--------------------------------------||
|-------------------------2------2---2-||
|--0-------------0--0--0--0------0---0-||


 Pre-Chorus
  C5                             A5
  Gtr I
  Q  Q   E E E E   E E Q   E E E E   +E  E Q   E E E E
|----------------|-----------------|-------5-----------|
|----------------|-----------------|-------5-----------|
|-5--5---5-----5-|---5-5---5-------|-------------------|
|-5--5---3h5---5-|---5-5---3h5---7-|-(7)-7-----7-----7-|
|-3--3---3-----3-|---3-3---3-----7-|-(7)-7-----5h7---7-|
|----------------|-------------0-5-|-(5)-5-----5-----5-|
|
| Gtr II
| Q  E E Q   E E   E E E E E E E E   +E  E E E Q   E E
|----------------|-----------------|-------------------|
|----------------|-----------------|-------------------|
|----------------|-----------------|-----2-----2-----2-|
|-5--5-5-5---5-5-|-5-5-5-5-5-4-3-2-|-(2)-2-----2-----2-|
|-3--3-3-3---3-3-|-3-3-3-3-3-2-1-0-|-(0)-0-0-0-0---0-0-|
|----------------|-----------------|-------------------|


                             Chorus
                              E            C5/G
   E  E E E E   +S  S E E     H      Q   E  E    +H.      E E
|-------------------------||--0---------------|---------------|
|---------5-7b8r(7)p5-7---||o-0---------------|---------------|
|---------5-7b9r(7)p5-7---||--1-------------5-|--(5)----------|
|-----7-7---------------0-||--2------2---2--5-|--(5)------x-x-|
|-----7-7-----------------||o-2------2---2--3-|--(3)------x-x-|
|-----5-5-----------------||--0------0---0--3-|--(3)------x-x-|
|
|                                PM------|  ~~~~~~~~~
| +E  E E E Q         E E     Q  E E E E E  E    +W
|-------------------------||------------------|---------------|
|-------------------------||o-----------------|---------------|
|-(2)-2-----2---------2-2-||---------------11-|-(11)----------|
|-(2)-2-----2---------2-2-||---------------10-|-(10)----------|
|-(0)-0-0-0-0---------0-0-||o-7--7-7-7-7-7----|---------------|
|-------------------------||------------------|---------------|


  E            D5/A                    E            C5/G
  H      Q   E E   +H.           E E   H      Q   E  E    +H.        E   E
|----------------|-------------------|-----------------|-------------------|
|----------------|-------------------|-----------------|-------------------|
|--------------7-|-(7)---------------|---------------5-|--(5)--------------|
|-2------2---2-7-|-(7)-----------x-x-|-2------2---2--5-|--(5)--------x---x-|
|-2------2---2-5-|-(5)-----------x-x-|-2------2---2--3-|--(3)--------x---x-|
|-0------0---0-5-|-(5)-----------x-x-|-0------0---0--3-|--(3)--------x---x-|
|
|    PM------|                            PM------|  ~~~~~~~~~
| Q  E E E E E E   +Q   E E +H         Q  E E E E E  E    +H.       +Q
|----------------|------0------------|-----------------|-------------------|
|----------------|-------------------|-----------------|-------------------|
|--------------7-|-(7)----7-(7)------|--------------11-|-(11)------(11)\---|
|--------------7-|-(7)---------------|--------------10-|-(10)------(10)\---|
|-7--7-7-7-7-7-5-|-(5)---------------|-7--7-7-7-7-7----|-------------------|
|----------------|-------------------|-----------------|-------------------|


               1.                2.
  G5             Bb     A          Bb     F
  H    Q  Q    E Q.   E Q.       E Q.   E Q.
|------------|----------------||---------------||
|------------|---3------2----o||---3------1----||
|------------|-x-3----x-2-----||-x-3------2----||
|-5----5--5--|-x-3----x-2-----||-x-3----x-3----||
|-5----5--5--|-x-1----x-0----o||-x-1----x-3----||
|-3----3--3--|----------------||--------x-1----||
|
| W            E Q.   E Q.       E Q.   E Q.
|------------|----------------||---------------||
|------------|---3------2----o||---3------1----||
|-0----------|-x-3----x-2-----||-x-3------2----||
|-0----------|-x-3----x-2-----||-x-3----x-3----||
|-x----------|-x-1----x-0----o||-x-1----x-3----||
|-3----------|----------------||--------x-1----||


   Outro
    E                       C5/G
    Gtr III
     ~~~~~~~~~~~~~~~~~~~
     H          +Q.          E
||--12---------(12)---------14----|
||o-15b17------(15)pb17-----17b19-|
||--------------------------------|
||--------------------------------|
||o-------------------------------|
||--------------------------------|
|
|   Gtr I
|    H           Q        E  E
||---0----------------------------|
||o--0----------------------------|
||---1-----------------------5----|
||---2-----------2--------2--5----|
||o--2-----------2--------2--3----|
||---0-----------0--------0--3----|
|
|   Gtr II
|          PM-------------|  ~~~~~~
|    Q     E E   E      E E  E
||--------------------------------|
||o-------------------------------|
||--------------------------11----|
||--------------------------10----|
||o--7-----7-7---7------7-7-------|
||--------------------------------|


                                        E                       D5/A
                                         ~~~~~~~~~~~~~~~~~~~
   +E       Q      +E       Q.      E    H          +Q.          E
|-(14)-----12-----(12)-----14---------|-12---------(12)---------14----|
|-(17)pb19-15b17--(15)pb17-17b19------|-15b17------(15)pb17-----17b19-|
|-------------------------------------|-------------------------------|
|-------------------------------------|-------------------------------|
|-------------------------------------|-------------------------------|
|-------------------------------------|-------------------------------|
|
|  +H.                            E E    H           Q        E  E
|-------------------------------------|-------------------------------|
|-------------------------------------|-------------------------------|
|--(5)--------------------------------|--------------------------7----|
|--(5)----------------------------x-x-|--2-----------2--------2--7----|
|--(3)----------------------------x-x-|--2-----------2--------2--5----|
|--(3)----------------------------x-x-|--0-----------0--------0--5----|
|
|~~~~~~~~~~                                    PM-------------|
|  +W                                    Q     E E   E      E E  E
|-------------------------------------|-------------------------------|
|-------------------------------------|-------------------------------|
|-(11)--------------------------------|--------------------------7----|
|-(10)--------------------------------|--------------------------7----|
|-------------------------------------|--7-----7-7---7------7-7--5----|
|-------------------------------------|-------------------------------|


                                         E                       C5/G
                                          ~~~~~~~~~~~~~~~~~~~
   +Q        Q       +E       Q.          H          +Q.          E
|-(14)------12------(12)-----14--------|-12---------(12)---------14----|
|-(17)pb19--15b17---(15)pb17-17b19-----|-15b17------(15)pb17-----17b19-|
|--------------------------------------|-------------------------------|
|--------------------------------------|-------------------------------|
|--------------------------------------|-------------------------------|
|--------------------------------------|-------------------------------|
|
|  +H.                             E E    H           Q        E  E
|--------------------------------------|-------------------------------|
|--------------------------------------|-------------------------------|
|--(7)---------------------------------|--------------------------5----|
|--(7)-----------------------------x-x-|--2-----------2--------2--5----|
|--(5)-----------------------------x-x-|--2-----------2--------2--3----|
|--(5)-----------------------------x-x-|--0-----------0--------0--3----|
|
|                                               PM-------------|  ~~~~~~
|  +Q        E    E  +H                   Q     E E   E      E E  E
|------------0-------------------------|-------------------------------|
|--------------------------------------|-------------------------------|
|--(7)------------7--(7)---------------|-------------------------11----|
|--(7)---------------------------------|-------------------------10----|
|--(5)---------------------------------|--7-----7-7---7------7-7-------|
|--------------------------------------|-------------------------------|


   +Q        Q      +E       Q.
|-(14)------12-----(12)-----14------------|
|-(17)pb19--15b17--(15)pb17-17b19---------|
|-----------------------------------------|
|-----------------------------------------|
|-----------------------------------------|
|-----------------------------------------|
|
|  +H.                              E   E
|-----------------------------------------|
|-----------------------------------------|
|--(5)------------------------------------|
|--(5)------------------------------x---x-|
|--(3)------------------------------x---x-|
|--(3)------------------------------x---x-|
|
|~~~~~~~~~~
|  +H.                             +Q
|-----------------------------------------|
|-----------------------------------------|
|-(11)----------------------------(11)\---|
|-(10)----------------------------(10)\---|
|-----------------------------------------|
|-----------------------------------------|


                   1.
  G5                      Bb                      A
   ~~~~~
                    |-------3--------|
   W                Q         Q      Q      Q         E      +E
|----------------|------------------------------------------------||
|-12-------------|-----------------------------------------------o||
|-14b16----------|-14pb16----14pb16-14pb16-14pb16----14pb16r(14)--||
|----------------|------------------------------------------------||
|----------------|-----------------------------------------------o||
|----------------|------------------------------------------------||
|
|  H       Q  Q     E     Q.                E     Q.
|----------------|------------------------------------------------||
|----------------|--------3-----------------------2--------------o||
|----------------|--x-----3-----------------x-----2---------------||
|--5-------5--5--|--x-----3-----------------x-----2---------------||
|--5-------5--5--|--x-----1-----------------x-----0--------------o||
|--3-------3--3--|------------------------------------------------||
|
|  W                E     Q.                E     Q.
|----------------|------------------------------------------------||
|----------------|--------3-----------------------2--------------o||
|--0-------------|--x-----3-----------------x-----2---------------||
|--0-------------|--x-----3-----------------x-----2---------------||
|--x-------------|--x-----1-----------------x-----0--------------o||
|--3-------------|------------------------------------------------||


  2.              H.=H
         Bb              F
   E      Q.       E      Q       +E
|-------------------------------------|
|-------------------------------------|
|-14pb16-14pb16---14pb16-14pb16r=(14)-|
|-------------------------------------|
|-------------------------------------|
|-------------------------------------|
|
|  E      Q.       E      Q.
|-------------------------------------|
|---------3---------------1-----------|
|--x------3---------------2-----------|
|--x------3--------x------3-----------|
|--x------1--------x------3-----------|
|------------------x------1-----------|
|
|  E      Q.       E      Q.
|-------------------------------------|
|---------3---------------1-----------|
|--x------3---------------2-----------|
|--x------3--------x------3-----------|
|--x------1--------x------3-----------|
|------------------x------1-----------|


  E
   ~~~~~~~~~~~
   H     +Q.     +E      W
|---------------------:--------------*|
|---------------------:--------------*|
|---------------------:--------------*|
|-14----(14)----(14)\-:--------------*|
|---------------------:--------------*|
|---------------------:--------------*|
|
|  W                     W
|--0------------------:-^0-----------*|
|--0------------------:-^0-----------*|
|--1------------------:-^1-----------*|
|--2------------------:-^2-----------*|
|--2------------------:-^2-----------*|
|--0------------------:-^0-----------*|
|
|         \4___________________________
|  H     +H             +Q   Q  H
|---------------------:--------------*|
|---------------------:--------------*|
|---------------------:--------------*|
|--2------------------:--------------*|
|--2------------------:--------------*|
|--0-----(0)----------:-(0)----------*|



Duration Legend
---------------
W - whole; H - half; Q - quarter; E - 8th; S - 16th; T - 32nd; X - 64th; a - acciaccatura
+ - note tied to previous; . - note dotted; .. - note double dotted
Uncapitalized letters represent notes that are staccato (1/2 duration)
Irregular groupings are notated above the duration line
Duration letters will always appear directly above the note/fret number it represents the
duration for.  Duration letters with no fret number below them represent rests.  Multi-
bar rests are notated in the form Wxn, where n is the number of bars to rest for.  Low
melody durations appear below the staff

Tablature Legend
----------------
 h   - hammer-on
 p   - pull-off
 b   - bend
 pb  - pre-bend
 r   - bend release (if no number after the r, then release immediately)
 /\  - slide into or out of (from/to "nowhere")
 s   - legato slide
 S   - shift slide
<n> - natural harmonic
[n]  - artificial harmonic
n(n) - tapped harmonic
 ~   - vibrato
 tr  - trill
 T   - tap
 TP  - trem. picking
 PM  - palm muting
\n/  - tremolo bar dip; n = amount to dip
 \n  - tremolo bar down
 n/  - tremolo bar up
/n\  - tremolo bar inverted dip
 =   - hold bend; also acts as connecting device for hammers/pulls
 <> - volume swell (louder/softer)
 x   - on rhythm slash represents muted slash
 o   - on rhythm slash represents single note slash

Misc Legend
-----------
 |  - bar
||  - double bar
||o - repeat start
o|| - repeat end
*|  - double bar (ending)
 :  - bar (freetime)
 $  - Segno
 &  - Coda
Tempo markers - <E/E./Q/Q./H/H.> = BPM(8/16=s8/s16), where s8 = swing 8ths, s16 = swing 16ths

comments
We did not receive enough feedback on this tab! Please rate:
print report bad tab
1 2 3 4 5
I want to post or [tab]
guest
You may want to rate the tab now too:
select rating
Please do not post tabs as comments. Select "correction" instead!