Oops, an error
Loading. Please wait.

Do It For The Kids Tab

ver2
ver2

Whole song

Interactive

More versions @911Tabs.com
5,086 views 1 this week
no commentswrite comment
1 2 3 4 5
excellent!
x 6
add to favorites launch autoscroll
font size
0
reset
Autoscroll
+/-
esc
set tempo
stop
Contributor
Difficulty
intermediate
WARNING: You are trying to view
                                    content from Ultimate-Guitar.com
                                    in an unauthorized application,
                                    which is prohibited.

                                    Please use an official Ultimate
                                    Guitar Tabs application for iPhone,
                                    iPad or Android to access legitimate
                                    chords, guitar, bass, and drum tabs
                                    from Ultimate-Guitar.com database.

                                    Type "ultimate guitar tabs" in Apple
                                    App Store's or Android Market's
                                    search to find the application.
Gtr I (E A D G B E) - 'Slash - rhythm'
Gtr II (E A D G B E) - 'Slash - lead (right channel)'
Gtr III (E A D G B E) - 'Dave - rhythm 1'
Gtr IV (E A D G B E) - 'Dave rhythm 2'
Gtr V (E A D G B E) - 'Slash - lead (centre channel)'


 Intro
  Q=155
  N.C.
 4/4
  Gtr I
  Wx2
|--------||
|--------||
|--------||
|--------||
|--------||
|--------||


 Pre-Verse
  N.C.(A5)                Bb5   C5      Bb5
  E E E E E E E E   E E E E +E   E  +E  E
|-----------------|-----------------------|
|-----------------|-----------------------|
|-----------------|-----------------------|
|-----------------|-----------------------|
|-7-7-5-6-7-7-5-6-|-7-7-5-8-(8)-10-(10)-8-|
|-5-5-3-4-5-5-3-4-|-5-5-3-6-(6)--8--(8)-6-|
| E E E E E E E E   E E E E +E   E  +E  E
|
| Gtr III
| E E E E E E E E   E E E E +E   E  +E  E
|-----------------|-----------------------|
|-----------------|-----------------------|
|-----------------|-----------------------|
|-7-7-5-6-7-7-5-6-|-7-7-5-8-(8)-10-(10)-8-|
|-7-7-5-6-7-7-5-6-|-7-7-5-8-(8)-10-(10)-8-|
|-----------------|-----------------------|


  N.C.(A5)                Bb5   C5      Bb5
  E E E E E E E E   E E E E +E   E  +E  E
|-----------------|-----------------------|
|-----------------|-----------------------|
|-----------------|-----------------------|
|-----------------|-----------------------|
|-7-7-5-6-7-7-5-6-|-7-7-x-8-(8)-10-(10)-8-|
|-5-5-3-4-5-5-3-4-|-5-5-x-6-(6)--8--(8)-6-|
| E E E E E E E E   E E E E +E   E  +E  E
|
| E E E E E E E E   E E E E +E   E  +E  E
|-----------------|-----------------------|
|-----------------|-----------------------|
|-----------------|-----------------------|
|-7-7-5-6-7-7-5-6-|-7-7-5-8-(8)-10-(10)-8-|
|-7-7-5-6-7-7-5-6-|-7-7-5-8-(8)-10-(10)-8-|
|-----------------|-----------------------|


  N.C.(A5)                  Bb5   C5      Bb5
  Gtr II
  ~~~~~~~~~~~~~~~~~~~~~~
  W                 +W
|-----------------|-------------------------|
|-----------------|-------------------------|
|-----------------|-------------------------|
|-7---------------|-(7)---------------------|
|-----------------|-------------------------|
|-----------------|-------------------------|
|
| Gtr I
| E E E E E E E E    E  E E E +E   E  +E  E
|-----------------|-------------------------|
|-----------------|-------------------------|
|-----------------|-------------------------|
|-----------------|-------------------------|
|-7-7-5-6-7-7-5-6-|--7--7-5-8-(8)-10-(10)-8-|
|-5-5-3-4-5-5-3-4-|--5--5-3-6-(6)--8--(8)-6-|
| E E E E E E E E    E  E E E +E   E  +E  E
|
| Gtr III
| E E E E E E E E    E  E E E +E   E  +E  E
|-----------------|-------------------------|
|-----------------|-------------------------|
|-----------------|-------------------------|
|-7-7-5-6-7-7-5-6-|--7--7-5-8-(8)-10-(10)-8-|
|-7-7-5-6-7-7-5-6-|--7--7-5-8-(8)-10-(10)-8-|
|-----------------|-------------------------|


  N.C.(A5)                          Bb5       C5            Bb5
                 ~~~~~
                                       |-3--|    |--3--|  |--3--|
   H            +H            E E E E  S  S E    S S   E  E   S S
|--------------------------|----------------------------------------||
|--------------------------|----------------------------------------||
|-10b12========(10)r-------|-10-9-7-9--7h=9p7----5h7p==5--4h==5p4---||
|--------------------------|----------------------------------------||
|--------------------------|----------------------------------------||
|--------------------------|----------------------------------------||
|
|  E     E E E   E   E E E    E E E E +E       E      +E    E
|--------------------------|----------------------------------------||
|--------------------------|----------------------------------------||
|--------------------------|----------------------------------------||
|--------------------------|----------------------------------------||
|--7-----7-5-6---7---7-5-6-|--7-7-5-8-(8)-----10-----(10)---8-------||
|--5-----5-3-4---5---5-3-4-|--5-5-3-6-(6)------8------(8)---6-------||
|  E     E E E   E   E E E    E E E E +E       E      +E    E
|
|  E     E E E   E   E E E    E E E E +E       E      +E    E
|--------------------------|----------------------------------------||
|--------------------------|----------------------------------------||
|--------------------------|----------------------------------------||
|--7-----7-5-6---7---7-5-6-|--7-7-5-8-(8)-----10-----(10)---8-------||
|--7-----7-5-6---7---7-5-6-|--7-7-5-8-(8)-----10-----(10)---8-------||
|--------------------------|----------------------------------------||


 Verse
  N.C.(A5)                  Bb    C       Bb
                     >
  W                 +W
|-----------------|-------------------------|
|-----------------|-------------------------|
|-----------------|-------------------------|
|-7---------------|-(7)---------------------|
|-----------------|-------------------------|
|-----------------|-------------------------|
|
| PM----------------------|
| E E E E E E E E    E  E E E +E   E  +E  E
|-----------------|-------------------------|
|-----------------|-------------------------|
|-----------------|-------------------------|
|-2-2-----2-2-----|--2--2-------------------|
|-0-0-----0-0-----|--0--0---5-(5)--7--(7)-5-|
|-----3-4-----3-4-|-------3-6-(6)--8--(8)-6-|
|
| PM----------------------|
| E E E E E E E E    E  E E E +E   E  +E  E
|-----------------|-------------------------|
|-----------------|-------------------------|
|-----------------|-------------------------|
|-----------------|---------8-(8)-10-(10)-8-|
|-7-7-5-6-7-7-5-6-|--7--7-5-8-(8)-10-(10)-8-|
|-----------------|-------------------------|


  N.C.(A5)                Bb    C       Bb
  W                 W
|-----------------|-----------------------|
|-----------------|-----------------------|
|-----------------|-----------------------|
|-----------------|-----------------------|
|-----------------|-----------------------|
|-----------------|-----------------------|
|
| PM--------------------|
| E E E E E E E E   E E E E +E   E  +E  E
|-----------------|-----------------------|
|-----------------|-----------------------|
|-----------------|-----------------------|
|-2-2-----2-2-----|-2-2-------------------|
|-0-0-----0-0-----|-0-0---5-(5)--7--(7)-5-|
|-----3-4-----3-4-|-----3-6-(6)--8--(8)-6-|
|
| PM--------------------|
| E E E E E E E E   E E E E +E   E  +E  E
|-----------------|-----------------------|
|-----------------|-----------------------|
|-----------------|-----------------------|
|-----------------|-------8-(8)-10-(10)-8-|
|-7-7-5-6-7-7-5-6-|-7-7-5-8-(8)-10-(10)-8-|
|-----------------|-----------------------|


  N.C.(A5)                Bb    C       Bb
  Gtr I
  PM--------------------|
  E E E E E E E E   E E E E +E   E  +E  E
|-----------------|-----------------------|
|-----------------|-----------------------|
|-----------------|-----------------------|
|-2-2-----2-2-----|-2-2-------------------|
|-0-0-----0-0-----|-0-0---5-(5)--7--(7)-5-|
|-----3-4-----3-4-|-----3-6-(6)--8--(8)-6-|
|
| Gtr III
| PM--------------------|
| E E E E E E E E   E E E E +E   E  +E  E
|-----------------|-----------------------|
|-----------------|-----------------------|
|-----------------|-----------------------|
|-----------------|-------8-(8)-10-(10)-8-|
|-7-7-5-6-7-7-5-6-|-7-7-5-8-(8)-10-(10)-8-|
|-----------------|-----------------------|


  N.C.(A5)                Bb    C       Bb
  PM--------------------|
  E E E E E E E E   E E E E +E   E  +E  E
|-----------------|-----------------------|
|-----------------|-----------------------|
|-----------------|-----------------------|
|-2-2-----2-2-----|-2-2-------------------|
|-0-0-----0-0-----|-0-0---5-(5)--7--(7)-5-|
|-----3-4-----3-4-|-----3-6-(6)--8--(8)-6-|
|
| PM--------------------|
| E E E E E E E E   E E E E +E   E  +E  E
|-----------------|-----------------------|
|-----------------|-----------------------|
|-----------------|-----------------------|
|-----------------|-------8-(8)-10-(10)-8-|
|-7-7-5-6-7-7-5-6-|-7-7-5-8-(8)-10-(10)-8-|
|-----------------|-----------------------|


  N.C.(A5)                 Bb    C        Bb
  PM---------------------|
  E E E E E E E E   E  E E E +E   E   +E  E
|-----------------|-------------------------|
|-----------------|-------------------------|
|-----------------|-------------------------|
|-2-2-----2-2-----|-2--2--------------------|
|-0-0-----0-0-----|-0--0---5-(5)--7---(7)-5-|
|-----3-4-----3-4-|------3-6-(6)--8---(8)-6-|
|
| PM---------------------|
| E E E E E E E E   E  E E E +E   E   +E  E
|-----------------|-------------------------|
|-----------------|-------------------------|
|-----------------|-------------------------|
|-----------------|--------8-(8)-10--(10)-8-|
|-7-7-5-6-7-7-5-6-|-7--7-5-8-(8)-10--(10)-8-|
|-----------------|-------------------------|
|
| Gtr II
| W                 Q.     E +E   Q.
|-----------------|-------------------------|
|-----------------|-------------------------|
|-----------------|--------7-(7)--9---------|
|-----------------|-------------------------|
|-----------------|-------------------------|
|-----------------|-------------------------|


  N.C.(A5)                                   Bb        C         Bb
   PM-----------------------------------|
   E  E E E  E  E     E   E        E  E  E   E    +E    E  +E     E
|-------------------------------|-------------------------------------|
|-------------------------------|-------------------------------------|
|-------------------------------|-------------------------------------|
|--2--2------2--2---------------|--2--2-------------------------------|
|--0--0------0--0---------------|--0--0------5----(5)---7--(7)----5---|
|-------3-4-----------3---4-----|--------3---6----(6)---8--(8)----6---|
|
|  PM-----------------------------------|
|  E  E E E  E  E     E   E        E  E  E   E    +E    E  +E     E
|-------------------------------|-------------------------------------|
|-------------------------------|-------------------------------------|
|-------------------------------|-------------------------------------|
|-------------------------------|------------8----(8)--10-(10)----8---|
|--7--7-5-6--7--7-----5---6-----|--7--7--5---8----(8)--10-(10)----8---|
|-------------------------------|-------------------------------------|
|
| +H        +E  E    +E  +E       +Q    +E   E    +Q        E    +E
|-------------------------------|-------------------------------------|
|-------------------------------|-------------------------------------|
|-(9)-------(9)-5b6==(5)r(5)b6==|=(5)---(5)r-7b9==(7)r------5b6==(5)r=|
|-------------------------------|-------------------------------------|
|-------------------------------|-------------------------------------|
|-------------------------------|-------------------------------------|


  N.C.(A5)                        Bb    C       Bb
   PM---------------------------|
   E     E E E E E E E    E   E E E +E   E  +E  E
|----------------------|--------------------------|
|----------------------|--------------------------|
|----------------------|--------------------------|
|--2-----2-----2-2-----|--2---2-------------------|
|--0-----0-----0-0-----|--0---0---5-(5)--7--(7)-5-|
|----------3-4-----3-4-|--------3-6-(6)--8--(8)-6-|
|
|  PM---------------------------|
|  E     E E E E E E E    E   E E E +E   E  +E  E
|----------------------|--------------------------|
|----------------------|--------------------------|
|----------------------|--------------------------|
|----------------------|----------8-(8)-10-(10)-8-|
|--7-----7-5-6-7-7-5-6-|--7---7-5-8-(8)-10-(10)-8-|
|----------------------|--------------------------|
|
|                         >
| +W                     +H          H
|----------------------|--------------------------|
|----------------------|--------------------------|
|-(5)b6================|=(5)r---------------------|
|----------------------|--------------------------|
|----------------------|--------------------------|
|----------------------|--------------------------|


  N.C.(A5)                Bb    C       Bb
  PM--------------------|
  E E E E E E E E   E E E E +E   E  +E  E
|-----------------|-----------------------||
|-----------------|-----------------------||
|-----------------|-----------------------||
|-2-2-----2-2-----|-2-2-------------------||
|-0-0-----0-0-----|-0-0---5-(5)--7--(7)-5-||
|-----3-4-----3-4-|-----3-6-(6)--8--(8)-6-||
|
| PM--------------------|
| E E E E E E E E   E E E E +E   E  +E  E
|-----------------|-----------------------||
|-----------------|-----------------------||
|-----------------|-----------------------||
|-----------------|-------8-(8)-10-(10)-8-||
|-7-7-5-6-7-7-5-6-|-7-7-5-8-(8)-10-(10)-8-||
|-----------------|-----------------------||
|
| W                 W
|-----------------|-----------------------||
|-----------------|-----------------------||
|-----------------|-----------------------||
|-----------------|-----------------------||
|-----------------|-----------------------||
|-----------------|-----------------------||


 Chorus
  D5
  Gtr IV
   E E   E   E   E  E  E  E      E E   E   E   E  E  E  E
   | |   |   |   |  |  |  |      | |   |   |   |  |  |  |
   / /   /   /   /  /  /  /      / /   /   /   /  /  /  /

   E E   E   E   E  E +E  S S    E E   E   E  +E  E +E  E
|-----------------------------|---------------------------|
|-----------------------------|---------------------------|
|-------------------------x-x-|-----------10-(10)---------|
|--7-7---5---7---x--7-(7)-x-x-|--7-7---x---x------7-(7)-7-|
|--5-5---3---5---x--5-(5)-x-x-|--5-5---x---8--(8)-5-(5)-5-|
|-----------------------------|---------------------------|
|
|  Q    +E   E  +Q     Q         Q    +E   E  +Q     Q
|-----------------------------|---------------------------|
|-10---(10)-----------10------|-10---(10)-----------10----|
|-----------10-(10)-----------|-----------10-(10)---------|
|-----------------------------|---------------------------|
|-----------------------------|---------------------------|
|-----------------------------|---------------------------|


  A5
  E   E E E E E E E       E      E   E      E   E  E E E
  |   | | | | | | |       |      |   |      |   |  | | |
  /   / / / / / / /       /      /   /      /   /  / / /

  W                       W
|----------------------|---------------------------------|
|----------------------|---------------------------------|
|----------------------|---------------------------------|
|-7--------------------|--7------------------------------|
|-7--------------------|--7------------------------------|
|-5--------------------|--5------------------------------|
|
| H..             E      +E     +E  +E     +E  +H
|----------------------|---------------------------------|
|-----------------5pb6r|=(5)b7==(5)r(5)b7==(5)r(5)-------|
|-2--------------------|---------------------------------|
|-2--------------------|---------------------------------|
|-0--------------------|---------------------------------|
|----------------------|---------------------------------|


  F5                                                   G5
   E  E   E   E   E     E  E  E    E  E   E   E   E     E  E   E
   |  |   |   |   |     |  |  |    |  |   |   |   |     |  |   |
   /  /   /   /   /     /  /  /    /  /   /   /   /     /  /   /

   E  E   E   E   S  S  E  E  E    E  E   E   E   S  S  E  E  +E
|-------------------------------|----------------------------------|
|-------------------------------|----------------------------------|
|-10-10---9--10---x--x-10-10-10-|-10-10---9--10---x--x-10-10-(10)\-|
|-10-10---9--10---x--x-10-10-10-|-10-10---9--10---x--x-10-10-(10)\-|
|--8--8---8---8---x--x--8--8--8-|--8--8---8---8---x--x--8--8--(8)\-|
|-------------------------------|----------------------------------|
|
|  Q     +E   E  +Q        Q       Q     +E   E  +Q        Q
|-------------------------------|----------------------------------|
|-10----(10)--------------------|-10----(10)-----------------------|
|------------10-(10)------------|------------10-(10)---------------|
|-------------------------10----|-------------------------10-------|
|-------------------------------|----------------------------------|
|-------------------------------|----------------------------------|


  A5
  E   E E E E E E E       E      E   E      E   E  E E E
  |   | | | | | | |       |      |   |      |   |  | | |
  /   / / / / / / /       /      /   /      /   /  / / /

  W                       W
|----------------------|-----------------------------------||
|----------------------|-----------------------------------||
|----------------------|-----------------------------------||
|-7--------------------|--7--------------------------------||
|-7--------------------|--7--------------------------------||
|-5--------------------|--5--------------------------------||
|
| H..             E      +E     +E  +E     +E  +H
|----------------------|-----------------------------------||
|-----------------5pb6r|=(5)b7==(5)r(5)b7==(5)r(5)---------||
|-2--------------------|-----------------------------------||
|-2--------------------|-----------------------------------||
|-0--------------------|-----------------------------------||
|----------------------|-----------------------------------||


 Pre-Verse
  D5                     C5    Bb5       N.C.(A5)
  Q  E E E E E E   E E E E +E  E +E  E   E E E E E E E E
|----------------|---------------------|-----------------|
|----------------|---------------------|-----------------|
|-7--7-7-7-7-7-7-|-7-7-7-5-(5)-3-(3)-3-|-----------------|
|-x--x-x-x-x-x-x-|-x-x-x-x-----x-----x-|-----------------|
|-5--5-5-5-5-5-5-|-5-5-5-3-(3)-1-(1)-1-|-7-7-5-6-7-7-5-6-|
|----------------|---------------------|-5-5-3-4-5-5-3-4-|
|                                        E E E E E E E E
|
| Q  E E E E E E   E E E E +E  E +E  E   E E E E E E E E
|----------------|---------------------|-----------------|
|----------------|---------------------|-----------------|
|----------------|---------------------|-----------------|
|-7--7-7-7-7-7-7-|-7-7-7-5-(5)-3-(3)-3-|-7-7-5-6-7-7-5-6-|
|-5--5-5-5-5-5-5-|-5-5-5-3-(3)-1-(1)-1-|-7-7-5-6-7-7-5-6-|
|----------------|---------------------|-----------------|


  N.C.(ABb5   C5      Bb5 N.C.(A5)
  E E E E +E   E  +E  E   E     E   E   E E E    E  E
|-----------------------|-----------------------------|
|-----------------------|-----------------------------|
|-----------------------|-----------------------------|
|-----------------------|-----------------------------|
|-7-7-5-8-(8)-10-(10)-8-|-7-----7---5---6-7-7----5--6-|
|-5-5-3-6-(6)--8--(8)-6-|-5-----5---3---4-5-5----3--4-|
| E E E E +E   E  +E  E   E     E   E   E E E    E  E
|
| E E E E +E   E  +E  E   E     E   E   E E E    E  E
|-----------------------|-----------------------------|
|-----------------------|-----------------------------|
|-----------------------|-----------------------------|
|-7-7-5-8-(8)-10-(10)-8-|-7-----7---5---6-7-7----5--6-|
|-7-7-5-8-(8)-10-(10)-8-|-7-----7---5---6-7-7----5--6-|
|-----------------------|-----------------------------|
|
| Gtr II
| W                       E    +E  +Q..       S +E  E
|-----------------------|-----------------------------|
|-----------------------|-----------------------------|
|-----------------------|-7b9==(7)-(7)--------7r(7)-6-|
|-----------------------|-----------------------------|
|-----------------------|-----------------------------|
|-----------------------|-----------------------------|


            Bb    C           Bb
  E E   E   E +E   E    +E    E
|----------------------------------||
|----------------------------------||
|----------------------------------||
|----------------------------------||
|-7-7---5---8-(8)-10---(10)---8----||
|-5-5---3---6-(6)--8----(8)---6----||
| E E   E   E +E   E    +E    E
|
| E E   E   E +E   E    +E    E
|----------------------------------||
|----------------------------------||
|----------------------------------||
|-7-7---5---8-(8)-10---(10)---8----||
|-7-7---5---8-(8)-10---(10)---8----||
|----------------------------------||
|
| |-----3------|     |----3-----|
| q   q   q    q     E.     Q   S
|----------------------------------||
|----------------------------------||
|-7---7---7----7-----6h=====7------||
|-------------------------------5--||
|----------------------------------||
|----------------------------------||


 Verse 2
  Gtr IV
   E  E +H.             +W
   |  |  |               |
   o  o  /               /

   PM-------------------------|
   E  E  E  E E E E E    E  E E E +E   E  +E  E
|---------------------|-------------------------|
|---------------------|-------------------------|
|---------------------|-------------------------|
|--2--2-------2-2-----|--2--2-------------------|
|--0--0-------0-0-----|--0--0---5-(5)--7--(7)-5-|
|--------3--4-----3-4-|-------3-6-(6)--8--(8)-6-|
|
|  PM-------------------------|
|  E  E  E  E E E E E    E  E E E +E   E  +E  E
|---------------------|-------------------------|
|---------------------|-------------------------|
|---------------------|-------------------------|
|---------------------|---------8-(8)-10-(10)-8-|
|--7--7--5--6-7-7-5-6-|--7--7-5-8-(8)-10-(10)-8-|
|---------------------|-------------------------|
|
|                        >
| +W                    +H         H
|---------------------|-------------------------|
|---------------------|-------------------------|
|---------------------|-------------------------|
|-(5)-----------------|-(5)---------------------|
|---------------------|-------------------------|
|---------------------|-------------------------|


  E E +H.             +W
  | |  |               |
  o o  /               /

  PM-----------------------|
  E E  E  E E E E E    E E E E +E   E  +E  E
|-------------------|------------------------|
|-------------------|------------------------|
|-------------------|------------------------|
|-2-2-------2-2-----|--2-2-------------------|
|-0-0-------0-0-----|--0-0---5-(5)--7--(7)-5-|
|------3--4-----3-4-|------3-6-(6)--8--(8)-6-|
|
| PM-----------------------|
| E E  E  E E E E E    E E E E +E   E  +E  E
|-------------------|------------------------|
|-------------------|------------------------|
|-------------------|------------------------|
|-------------------|--------8-(8)-10-(10)-8-|
|-7-7--5--6-7-7-5-6-|--7-7-5-8-(8)-10-(10)-8-|
|-------------------|------------------------|
|
| W                    W
|-------------------|------------------------|
|-------------------|------------------------|
|-------------------|------------------------|
|-------------------|------------------------|
|-------------------|------------------------|
|-------------------|------------------------|


  E E +H.             +W
  | |  |               |
  o o  /               /

  PM-----------------------|
  E E  E  E E E E E    E E E E +E   E  +E  E
|-------------------|------------------------|
|-------------------|------------------------|
|-------------------|------------------------|
|-2-2-------2-2-----|--2-2-------------------|
|-0-0-------0-0-----|--0-0---5-(5)--7--(7)-5-|
|------3--4-----3-4-|------3-6-(6)--8--(8)-6-|
|
| PM-----------------------|
| E E  E  E E E E E    E E E E +E   E  +E  E
|-------------------|------------------------|
|-------------------|------------------------|
|-------------------|------------------------|
|-------------------|--------8-(8)-10-(10)-8-|
|-7-7--5--6-7-7-5-6-|--7-7-5-8-(8)-10-(10)-8-|
|-------------------|------------------------|


  E E +H.             +W
  | |  |               |
  o o  /               /

  PM-----------------------|
  E E  E  E E E E E    E E E E +E   E  +E  E
|-------------------|------------------------|
|-------------------|------------------------|
|-------------------|------------------------|
|-2-2-------2-2-----|--2-2-------------------|
|-0-0-------0-0-----|--0-0---5-(5)--7--(7)-5-|
|------3--4-----3-4-|------3-6-(6)--8--(8)-6-|
|
| PM-----------------------|
| E E  E  E E E E E    E E E E +E   E  +E  E
|-------------------|------------------------|
|-------------------|------------------------|
|-------------------|------------------------|
|-------------------|--------8-(8)-10-(10)-8-|
|-7-7--5--6-7-7-5-6-|--7-7-5-8-(8)-10-(10)-8-|
|-------------------|------------------------|


  E E +H.                  +W
  | |  |                    |
  o o  /                    /

  PM------------------------------|
  E E  E  E E  E     E E    E   E E  E +E   E      +E  E
|------------------------|-------------------------------|
|------------------------|-------------------------------|
|------------------------|-------------------------------|
|-2-2-------2--2---------|--2---2------------------------|
|-0-0-------0--0---------|--0---0----5-(5)--7------(7)-5-|
|------3--4----------3-4-|--------3--6-(6)--8------(8)-6-|
|
| PM------------------------------|
| E E  E  E E  E     E E    E   E E  E +E   E      +E  E
|------------------------|-------------------------------|
|------------------------|-------------------------------|
|------------------------|-------------------------------|
|------------------------|-----------8-(8)-10-----(10)-8-|
|-7-7--5--6-7--7-----5-6-|--7---7-5--8-(8)-10-----(10)-8-|
|------------------------|-------------------------------|
|
| Gtr II
| H         E  Q.           E   E E  E  E   Q.
|------------------------|-------------------------------|
|-------------15b17======|=15r-15---15-----15b17=========|
|------------------------|-------------------------------|
|------------------------|-------------------------------|
|------------------------|-------------------------------|
|------------------------|-------------------------------|


    E    E +H.               +W
    |    |  |                 |
    o    o  /                 /

    PM-----------------------------|
    E    E  E  E E E  E  E    E  E   E   E      +E    E  +E       E
|--------------------------|---------------------------------------------|
|--------------------------|---------------------------------------------|
|--------------------------|---------------------------------------------|
|---2----2-------2-2-------|--2--2---------------------------------------|
|---0----0-------0-0-------|--0--0-------5------(5)---7--(7)------5------|
|-----------3--4------3--4-|---------3---6------(6)---8--(8)------6------|
|
|   PM-----------------------------|
|   E    E  E  E E E  E  E    E  E   E   E      +E    E  +E       E
|--------------------------|---------------------------------------------|
|--------------------------|---------------------------------------------|
|--------------------------|---------------------------------------------|
|--------------------------|-------------8------(8)--10-(10)------8------|
|---7----7--5--6-7-7--5--6-|--7--7---5---8------(8)--10-(10)------8------|
|--------------------------|---------------------------------------------|
|
|  +H            Q    E  E    E  E  +E   E      +Q        E      +E
|--------------------------|---------------------------------------------|
|-(15)r\-------------14----|-14-14-(14)-15b17==(15)r---------------------|
|-----------------------16-|-----------------------------16pb17r(16)b18==|
|--------------------------|---------------------------------------------|
|--------------------------|---------------------------------------------|
|--------------------------|---------------------------------------------|


    E  E +H.              +W
    |  |  |                |
    o  o  /                /

    PM---------------------------|
    E  E  E  E E E E E     E   E E E +E   E  +E  E
|----------------------|---------------------------|
|----------------------|---------------------------|
|----------------------|---------------------------|
|---2--2-------2-2-----|---2---2-------------------|
|---0--0-------0-0-----|---0---0---5-(5)--7--(7)-5-|
|---------3--4-----3-4-|---------3-6-(6)--8--(8)-6-|
|
|   PM---------------------------|
|   E  E  E  E E E E E     E   E E E +E   E  +E  E
|----------------------|---------------------------|
|----------------------|---------------------------|
|----------------------|---------------------------|
|----------------------|-----------8-(8)-10-(10)-8-|
|---7--7--5--6-7-7-5-6-|---7---7-5-8-(8)-10-(10)-8-|
|----------------------|---------------------------|
|
|   >
|  +W                     +H          H
|----------------------|---------------------------|
|----------------------|---------------------------|
|-(16)-----------------|-(16)r---------------------|
|----------------------|---------------------------|
|----------------------|---------------------------|
|----------------------|---------------------------|


  E E +H.             +W
  | |  |               |
  o o  /               /

  PM-----------------------|
  E E  E  E E E E E    E E E E +E   E  +E  E
|-------------------|------------------------||
|-------------------|------------------------||
|-------------------|------------------------||
|-2-2-------2-2-----|--2-2-------------------||
|-0-0-------0-0-----|--0-0---5-(5)--7--(7)-5-||
|------3--4-----3-4-|------3-6-(6)--8--(8)-6-||
|
| PM-----------------------|
| E E  E  E E E E E    E E E E +E   E  +E  E
|-------------------|------------------------||
|-------------------|------------------------||
|-------------------|------------------------||
|-------------------|--------8-(8)-10-(10)-8-||
|-7-7--5--6-7-7-5-6-|--7-7-5-8-(8)-10-(10)-8-||
|-------------------|------------------------||
|
| W                    W
|-------------------|------------------------||
|-------------------|------------------------||
|-------------------|------------------------||
|-------------------|------------------------||
|-------------------|------------------------||
|-------------------|------------------------||


   Chorus
    D5
     E E   E   E   E  E  E E    E E   E   E   E  E  E E
     | |   |   |   |  |  | |    | |   |   |   |  |  | |
     / /   /   /   /  /  / /    / /   /   /   /  /  / /

     E E   E   E   E  E  Q      E E   E   E   E  E  Q
||---------------------------|--------------------------|
||o--------------------------|--------------------------|
||---------------------------|--------------------------|
||---7-7---5---7---x--7--7---|--7-7---5---7---x--7--7---|
||o--5-5---3---5---x--5--5---|--5-5---3---5---x--5--5---|
||---------------------------|--------------------------|
|
|    Q    +E   E  +Q     Q      Q    +E   E  +Q     Q
||---------------------------|--------------------------|
||o-10---(10)-----------10---|-10---(10)-----------10---|
||------------10-(10)--------|-----------10-(10)--------|
||---------------------------|--------------------------|
||o--------------------------|--------------------------|
||---------------------------|--------------------------|


  A5
  E   E E E E E E E       E      E   E      E   E  E E E
  |   | | | | | | |       |      |   |      |   |  | | |
  /   / / / / / / /       /      /   /      /   /  / / /

  W                       W
|----------------------|----------------------------------|
|----------------------|----------------------------------|
|----------------------|----------------------------------|
|-7--------------------|--7-------------------------------|
|-7--------------------|--7-------------------------------|
|-5--------------------|--5-------------------------------|
|
| H..             E      +E     +E  +E     +E  +H
|----------------------|----------------------------------|
|-----------------5pb6r|=(5)b7==(5)r(5)b7==(5)r(5)--------|
|-2--------------------|----------------------------------|
|-2--------------------|----------------------------------|
|-0--------------------|----------------------------------|
|----------------------|----------------------------------|


  F5                                                   G5
   E  E   E   E   E     E  E  E    E  E   E   E   E     E  E   E
   |  |   |   |   |     |  |  |    |  |   |   |   |     |  |   |
   /  /   /   /   /     /  /  /    /  /   /   /   /     /  /   /

   E  E   E   E   S  S  E  E  E    E  E   E   E   S  S  E  E  +E
|-------------------------------|----------------------------------|
|-------------------------------|----------------------------------|
|-10-10---9--10---x--x-10-10-10-|-10-10---9--10---x--x-10-10-(10)\-|
|-10-10---9--10---x--x-10-10-10-|-10-10---9--10---x--x-10-10-(10)\-|
|--8--8---8---8---x--x--8--8--8-|--8--8---8---8---x--x--8--8--(8)\-|
|-------------------------------|----------------------------------|
|
|  Q     +E   E  +Q        Q       Q     +E   E  +Q        Q
|-------------------------------|----------------------------------|
|-10----(10)--------------------|-10----(10)-----------------------|
|------------10-(10)------------|------------10-(10)---------------|
|-------------------------10----|-------------------------10-------|
|-------------------------------|----------------------------------|
|-------------------------------|----------------------------------|


  A5
  E   E E E E E E E       E      E   E      E   E  E E E
  |   | | | | | | |       |      |   |      |   |  | | |
  /   / / / / / / /       /      /   /      /   /  / / /

  W                       W
|----------------------|------------------------------------||
|----------------------|-----------------------------------o||
|----------------------|------------------------------------||
|-7--------------------|--7---------------------------------||
|-7--------------------|--7--------------------------------o||
|-5--------------------|--5---------------------------------||
|
| H..             E      +E     +E  +E     +E  +H
|----------------------|------------------------------------||
|-----------------5pb6r|=(5)b7==(5)r(5)b7==(5)r(5)---------o||
|-2--------------------|------------------------------------||
|-2--------------------|------------------------------------||
|-0--------------------|-----------------------------------o||
|----------------------|------------------------------------||


 Bridge
  F5
  Gtr III
   H     Q   +E E   +E  E +E E +E E  E E
   |     |    | |    |  |  | |  | |  | |
   /     /    / /    /  /  / /  / /  / /

   H.         Q      H.              E E
|-----------------|----------------------|
|-----------------|----------------------|
|-10--------/12---|-10--------------10s9-|
|--x----------x---|--x---------------x---|
|--8--------/10---|--8---------------8s7-|
|-----------------|----------------------|


  C5
  H     Q  +E  E    +E E +E E +E E E E
  |     |   |  |     | |  | |  | | | |
  /     /   /  /     / /  / /  / / / /

  H.        E +E     H         Q   Q
|-----------------|--------------------|
|-----------------|--------------------|
|-5---------7-(7)s|==5---------7s==5---|
|-x---------x-----|------------x-------|
|-3---------5-(5)s|==3---------5s==3---|
|-----------------|--------------------|


  Bb5                                    F5          A5
  H     Q  +E  E    +E E +E E +E E E E   Q  E E Q  E E   +E E +E E +E E +E E
  |     |   |  |     | |  | |  | | | |   |  | | |  | |    | |  | |  | |  | |
  /     /   /  /     / /  / /  / / / /   /  / / /  / /    / /  / /  / /  / /

  H.        E +E     H         H         W                W
|-----------------|--------------------|---------------|---------------------|
|-----------------|--------------------|---------------|---------------------|
|-7---------9-(9)s|=10--------12-------|-5-------------|--6------------------|
|-x---------x-----|------------x-------|-x-------------|--x------------------|
|-5---------7-(7)s|==8--------10-------|-3-------------|--4------------------|
|-----------------|--------------------|---------------|---------------------|


  F5
   H     Q  +E   E    +E  E +E E +E E  E  E
   |     |   |   |     |  |  | |  | |  |  |
   /     /   /   /     /  /  / /  / /  /  /

   H.        E  +E     H.              E  E
|-------------------|-----------------------|
|-------------------|-----------------------|
|-14--------15-(15)s|=14--------------14s12-|
|--x---------x------|------------------x----|
|-12--------13-(13)s|=12--------------12s10-|
|-------------------|-----------------------|


  C5
   H       Q  +E E   +E  E +E E +E  E  E   E
   |       |   | |    |  |  | |  |  |  |   |
   /       /   / /    /  /  / /  /  /  /   /

   E  E H      Q      Q.      E +Q     E  +E
|------------------|---------------------------|
|------------------|---------------------------|
|-14s12-9-----10---|--9-------7-(7)---12-(12)s=|
|--x----x------x---|--x-------x--------x-------|
|-12s10-7------8---|--7-------5-(5)---10-(10)s=|
|------------------|---------------------------|


  Bb5                                   F5           A5
   H     Q  +E E   +E E +E E +E E E E    Q  E E Q  E E   +E E +E E +E E +E E
   |     |   | |    | |  | |  | | | |    |  | | |  | |    | |  | |  | |  | |
   /     /   / /    / /  / /  / / / /    /  / / /  / /    / /  / /  / /  / /

                                                          ~~
   H     H          H         H          W                W
|----------------|--------------------|----------------|---------------------||
|----------------|--------------------|----------------|---------------------||
|-10----12-------|-14--------15-------|-17-------------|---------------------||
|--------x-------|--x---------x-------|--x-------------|---------------------||
|--8----10-------|-12--------13-------|-15-------------|-16------------------||
|----------------|--------------------|----------------|---------------------||


 Guitar Solo
  D5                               C5      Bb5   Bb5
  Gtr II
   E  E  E  E  E  E  E E    E  E E  E  +E  E +E  E
|------------------------|-------------------------|
|------------------------|-------------------------|
|------------------------|-------------------------|
|-15s14-14s12-12s10-10s8-|--8s=7-7-10-(10)-8-(8)-8-|
|--x-----x-----x-----x---|--x----x--x------x-----x-|
|-13s12-12s10-10s=8--8s6-|--6s=5-5--8--(8)-6-(6)-6-|
|
| Gtr I
|  W                       +Q.      E  +E  E +E  E
|------------------------|-------------------------|
|------------------------|-------------------------|
|------------------------|-------------------------|
|--7---------------------|-(7)------5--(5)-3-(3)-3-|
|--5---------------------|-(5)------3--(3)-1-(1)-1-|
|------------------------|-------------------------|
|
| Gtr III
|  PM----------------------------|
|  E  E  E  E  E  E  E E    E  E E  E  +E  E +E  E
|------------------------|-------------------------|
|------------------------|-------------------------|
|------------------------|-------------------------|
|--7--7--7--7--7--7--7-7-|--7--7-7--5--(5)-3-(3)-3-|
|--5--5--5--5--5--5--5-5-|--5--5-5--3--(3)-1-(1)-1-|
|------------------------|-------------------------|


  N.C.(A5)                            Bb5
  ~~~~~~~~~~~~~~~~~~~~~~
  W                 +Q.     E     +E  E +E      +E
|-----------------|---------------------------------|
|-----------------|---------------------------------|
|-----------------|---------------------------------|
|-7---------------|-(7)-----9b10==(9)-9r(9)b10==(9)-|
|-----------------|---------------------------------|
|-----------------|---------------------------------|
|
| PM------------------------------|
| E E E E E E E E    E  E E E      E  E  E       E
|-----------------|---------------------------------|
|-----------------|---------------------------------|
|-----------------|-------------------3--3-------3--|
|-2-2-----2-2-----|--2--2----------2--3--3-------3--|
|-0-0-----0-0-----|--0--0----------0----------------|
|-----3-4-----3-4-|-------3-4-----------------------|
|
| E E E E E E E E    E  E E E      E  E  E       E
|-----------------|---------------------------------|
|-----------------|---------------------------------|
|-----------------|---------------------------------|
|-7-7-5-6-7-7-5-6-|--7--7-5-6------7--8--8-------8--|
|-7-7-5-6-7-7-5-6-|--7--7-5-6------7--8--8-------8--|
|-----------------|---------------------------------|


  N.C.(A5)
   |----3----|             |-----3-----|
  +E   E   E E S   S S   S E   E E E   E
|----------------------------------------|
|----------------------------------------|
|----------------------------------------|
|-(9)r-9---7-9-7h==8p7s==5-7---5---------|
|--------------------------------7-5---7-|
|----------------------------------------|
|
|  PM-------------------------------------
|  E     E   E   E     E     E   E   E
|----------------------------------------|
|----------------------------------------|
|----------------------------------------|
|--2-----2-------------2-----2-----------|
|--0-----0-------------0-----0-----------|
|------------3---4---------------3---4---|
|
|  E     E   E   E     E     E   E   E
|----------------------------------------|
|----------------------------------------|
|----------------------------------------|
|--7-----7---5---6-----7-----7---5---6---|
|--7-----7---5---6-----7-----7---5---6---|
|----------------------------------------|


                    Bb5          N.C.(A5)
                       \1___/
                                           ~~~
  S S S S S S S S Q   +E   +E    +E  E    +H        +E   E
|------------------------------|----------------------------|
|------------------------------|-------------------------5--|
|------------------------------|-----7b9==(7)-------(7)r----|
|-1h2p1p0---0------------------|----------------------------|
|---------3---3p2p0---(0)--(0)-|-(0)------------------------|
|------------------------------|----------------------------|
|
|--------------------------------------------------------|
| E   E   E   E   E E  E    E     E  E     E  E E E  E   E
|------------------------------|----------------------------|
|------------------------------|----------------------------|
|-------------------3--3----3--|----------------------------|
|-2---2-----------2-3--3----3--|--2--2----------2-2---------|
|-0---0-----------0------------|--0--0----------0-0---------|
|---------3---4----------------|-----------3--4------3---4--|
|
| E   E   E   E   E E  E    E     E  E     E  E E E  E   E
|------------------------------|----------------------------|
|------------------------------|----------------------------|
|------------------------------|----------------------------|
|-7---7---5---6---7-8--8----8--|--7--7-----5--6-7-7--5---6--|
|-7---7---5---6---7-8--8----8--|--7--7-----5--6-7-7--5---6--|
|------------------------------|----------------------------|


  N.C.(A5)                 Bb5
  |--3--| |----3----|          |3|
  E E   E E   E   E E E.       E E   S
|-5---------------5------------5-----5-|
|---5---8-----5-----5-8b10-------8-----|
|---------7b9--------------------------|
|--------------------------------------|
|--------------------------------------|
|--------------------------------------|
|
| PM------------------------------------
| E   E   E     E   E      E E     E
|--------------------------------------|
|--------------------------------------|
|--------------------------3-3-----3---|
|-2---2-------------2------3-3-----3---|
|-0---0-------------0------------------|
|---------3-----4----------------------|
|
| E   E   E     E   E      E E     E
|--------------------------------------|
|--------------------------------------|
|--------------------------------------|
|-7---7---5-----6---7------8-8-----8---|
|-7---7---5-----6---7------8-8-----8---|
|--------------------------------------|


  N.C.(A5)                                           Bb5      C5      Bb5
  |---3---| |-3-| |--3--|                |--3--|
  E E   E E S S S E   E S. S S S S S   S E   E E   S E    +Q      +E  E
|------------------------------------|----------------------------------||
|-7-6---5-6-5h6p5-----5--------------|-------------4--------------------||
|-----------------8-----8--7h8h9-7s5-|---7---5-7-----5b7==(5)-----(5)r5-||
|------------------------------------|-7--------------------------------||
|------------------------------------|----------------------------------||
|------------------------------------|----------------------------------||
|
|------------------------------------------------|
| E   E   E   E     E   E    E   E     E   E     E   E    +E   E  +E  E
|------------------------------------|----------------------------------||
|------------------------------------|----------------------------------||
|------------------------------------|----------------------------------||
|-2---2-------------2---2------------|-2---2----------------------------||
|-0---0-------------0---0------------|-0---0---------5----(5)--7--(7)-5-||
|---------3---4--------------3---4---|-----------3---6----(6)--8--(8)-6-||
|
| E   E   E   E     E   E    E   E     E   E     E   E    +E   E  +E  E
|------------------------------------|----------------------------------||
|------------------------------------|----------------------------------||
|------------------------------------|----------------------------------||
|-7---7---5---6-----7---7----5---6---|-7---7-----5---8----(8)-10-(10)-8-||
|-7---7---5---6-----7---7----5---6---|-7---7-----5---8----(8)-10-(10)-8-||
|------------------------------------|----------------------------------||


 Verse 3
  N.C.(A5)
  Gtr IV
  W                      W
  S S E +H.             +W
|---------------------|-------------------------|
|---------------------|-------------------------|
|---------------------|-------------------------|
|-5---5-(5)-----------|-(5)---------------------|
|---7-----------------|-------------------------|
|---------------------|-------------------------|
|
| Gtr I
| PM--------------------------|
| E   E  E  E E E E E    E  E E E +E   E  +E  E
|---------------------|-------------------------|
|---------------------|-------------------------|
|---------------------|-------------------------|
|-2---2-------2-2-----|--2--2-------------------|
|-0---0-------0-0-----|--0--0---5-(5)--7--(7)-5-|
|--------3--4-----3-4-|-------3-6-(6)--8--(8)-6-|
|
| Gtr III
| E   E  E  E E E E E    E  E E E +E   E  +E  E
|---------------------|-------------------------|
|---------------------|-------------------------|
|---------------------|-------------------------|
|-7---7--5--6-7-7-5-6-|--7--7-5-8-(8)-10-(10)-8-|
|-7---7--5--6-7-7-5-6-|--7--7-5-8-(8)-10-(10)-8-|
|---------------------|-------------------------|


  E E +H.             +W
  | |  |               |
  o o  /               /

  W                    W
|-------------------|------------------------|
|-------------------|------------------------|
|-------------------|------------------------|
|-------------------|------------------------|
|-------------------|------------------------|
|-------------------|------------------------|
|
| PM-----------------------|
| E E  E  E E E E E    E E E E +E   E  +E  E
|-------------------|------------------------|
|-------------------|------------------------|
|-------------------|------------------------|
|-2-2-------2-2-----|--2-2-------------------|
|-0-0-------0-0-----|--0-0---5-(5)--7--(7)-5-|
|------3--4-----3-4-|------3-6-(6)--8--(8)-6-|
|
| E E  E  E E E E E    E E E E +E   E  +E  E
|-------------------|------------------------|
|-------------------|------------------------|
|-------------------|------------------------|
|-7-7--5--6-7-7-5-6-|--7-7-5-8-(8)-10-(10)-8-|
|-7-7--5--6-7-7-5-6-|--7-7-5-8-(8)-10-(10)-8-|
|-------------------|------------------------|


  E E +H.             +W
  | |  |               |
  o o  /               /

  Gtr I
  PM-----------------------|
  E E  E  E E E E E    E E E E +E   E  +E  E
|-------------------|------------------------|
|-------------------|------------------------|
|-------------------|------------------------|
|-2-2-------2-2-----|--2-2-------------------|
|-0-0-------0-0-----|--0-0---5-(5)--7--(7)-5-|
|------3--4-----3-4-|------3-6-(6)--8--(8)-6-|
|
| Gtr III
| E E  E  E E E E E    E E E E +E   E  +E  E
|-------------------|------------------------|
|-------------------|------------------------|
|-------------------|------------------------|
|-7-7--5--6-7-7-5-6-|--7-7-5-8-(8)-10-(10)-8-|
|-7-7--5--6-7-7-5-6-|--7-7-5-8-(8)-10-(10)-8-|
|-------------------|------------------------|


  W               W
                  ~~~~~~
  E H..           H..               +E
|-------------|--------------------------||
|-------------|--------------------------||
|-------------|--------------------------||
|-2-----------|--------------------------||
|-0-----------|-/11b12-------------(11)\-||
|-------------|--------------------------||
|
|                 PM---------------|
| E H..           E    E E E E E E   E
|-------------|--------------------------||
|-------------|--------------------------||
|-------------|--------------------------||
|-7-----------|---2----2-2-2-2-2-2---2---||
|-7-----------|---0----0-0-0-0-0-0---0---||
|-------------|--------------------------||


   Chorus
    D5
     E E   E   E   E  E  E E    E E   E   E   E  E  E E
     | |   |   |   |  |  | |    | |   |   |   |  |  | |
     / /   /   /   /  /  / /    / /   /   /   /  /  / /

     E E   E   E   E  E  Q      E E   E   E   E  E  Q
||---------------------------|--------------------------|
||o--------------------------|--------------------------|
||---------------------------|--------------------------|
||---7-7---5---7---x--7--7---|--7-7---5---7---x--7--7---|
||o--5-5---3---5---x--5--5---|--5-5---3---5---x--5--5---|
||---------------------------|--------------------------|
|
|    Q    +E   E  +Q     Q      Q    +E   E  +Q     Q
||---------------------------|--------------------------|
||o-10---(10)-----------10---|-10---(10)-----------10---|
||------------10-(10)--------|-----------10-(10)--------|
||---------------------------|--------------------------|
||o--------------------------|--------------------------|
||---------------------------|--------------------------|


  A5
  E   E E E E E E E       E      E   E      E   E  E E E
  |   | | | | | | |       |      |   |      |   |  | | |
  /   / / / / / / /       /      /   /      /   /  / / /

  W                       W
|----------------------|----------------------------------|
|----------------------|----------------------------------|
|----------------------|----------------------------------|
|-7--------------------|--7-------------------------------|
|-7--------------------|--7-------------------------------|
|-5--------------------|--5-------------------------------|
|
| H..             E      +E     +E  +E     +E  +H
|----------------------|----------------------------------|
|-----------------5pb6r|=(5)b7==(5)r(5)b7==(5)r(5)--------|
|-2--------------------|----------------------------------|
|-2--------------------|----------------------------------|
|-0--------------------|----------------------------------|
|----------------------|----------------------------------|


  F5
   E  E   E   E   E     E  E  E    E  E   E   E   E     E  E   E
   |  |   |   |   |     |  |  |    |  |   |   |   |     |  |   |
   /  /   /   /   /     /  /  /    /  /   /   /   /     /  /   /

   E  E   E   E   S  S  E  E  E    E  E   E   E   S  S  E  E  +E
|-------------------------------|----------------------------------|
|-------------------------------|----------------------------------|
|-10-10---9--10---x--x-10-10-10-|-10-10---9--10---x--x-10-10-(10)\-|
|-10-10---9--10---x--x-10-10-10-|-10-10---9--10---x--x-10-10-(10)\-|
|--8--8---8---8---x--x--8--8--8-|--8--8---8---8---x--x--8--8--(8)\-|
|-------------------------------|----------------------------------|
|
|  Q     +E   E  +Q        Q       Q     +E   E  +Q        Q
|-------------------------------|----------------------------------|
|-10----(10)--------------------|-10----(10)-----------------------|
|------------10-(10)------------|------------10-(10)---------------|
|-------------------------10----|-------------------------10-------|
|-------------------------------|----------------------------------|
|-------------------------------|----------------------------------|


  A5
  E   E E E E E E E       E      E   E      E   E  E E E
  |   | | | | | | |       |      |   |      |   |  | | |
  /   / / / / / / /       /      /   /      /   /  / / /

  W                       W
|----------------------|------------------------------------||
|----------------------|-----------------------------------o||
|----------------------|------------------------------------||
|-7--------------------|--7---------------------------------||
|-7--------------------|--7--------------------------------o||
|-5--------------------|--5---------------------------------||
|
| H..             E      +E     +E  +E     +E  +H
|----------------------|------------------------------------||
|-----------------5pb6r|=(5)b7==(5)r(5)b7==(5)r(5)---------o||
|-2--------------------|------------------------------------||
|-2--------------------|------------------------------------||
|-0--------------------|-----------------------------------o||
|----------------------|------------------------------------||


 Out-Chorus
  D5
   E E   E   E   E  E  E E    E E   E   E   E  E  E E
   | |   |   |   |  |  | |    | |   |   |   |  |  | |
   / /   /   /   /  /  / /    / /   /   /   /  /  / /

  Gtr II
   H             H            H             H
|--------------------------|--------------------------|
|--------------------------|--------------------------|
|--7-------------9---------|-10------------13---------|
|--x-------------x---------|--x-------------x---------|
|--5-------------7---------|--8------------11---------|
|--------------------------|--------------------------|
|
| Gtr I
|  E E   E   E   E  E  Q      E E   E   E   E  E  Q
|--------------------------|--------------------------|
|--------------------------|--------------------------|
|--------------------------|--------------------------|
|--7-7---5---7---x--7--7---|--7-7---5---7---x--7--7---|
|--5-5---3---5---x--5--5---|--5-5---3---5---x--5--5---|
|--------------------------|--------------------------|
|
| Gtr III
|  Q    +E   E  +Q     Q      Q    +E   E  +Q     Q
|--------------------------|--------------------------|
|-10---(10)-----------10---|-10---(10)-----------10---|
|-----------10-(10)--------|-----------10-(10)--------|
|--------------------------|--------------------------|
|--------------------------|--------------------------|
|--------------------------|--------------------------|


  A5
   E   E E E E E E  E       E      E   E      E   E  E E E
   |   | | | | | |  |       |      |   |      |   |  | | |
   /   / / / / / /  /       /      /   /      /   /  / / /

   H..              E       H..                          E
|------------------------|----------------------------------|
|------------------------|----------------------------------|
|-14---------------10----|--9----------------------------9\-|
|--x----------------x----|--x----------------------------x--|
|-12----------------8----|--7----------------------------7\-|
|------------------------|----------------------------------|
|
|  W                        W
|------------------------|----------------------------------|
|------------------------|----------------------------------|
|------------------------|----------------------------------|
|--7---------------------|--7-------------------------------|
|--7---------------------|--7-------------------------------|
|--5---------------------|--5-------------------------------|
|
|  H..              E      +E     +E  +E     +E  +H
|------------------------|----------------------------------|
|-------------------5pb6r|=(5)b7==(5)r(5)b7==(5)r(5)--------|
|--2---------------------|----------------------------------|
|--2---------------------|----------------------------------|
|--0---------------------|----------------------------------|
|------------------------|----------------------------------|


  F5
   E   E   E   E   E     E  E  E    E   E   E   E   E     E  E   E
   |   |   |   |   |     |  |  |    |   |   |   |   |     |  |   |
   /   /   /   /   /     /  /  /    /   /   /   /   /     /  /   /

   H.                       Q       H.                       Q
|--------------------------------|-----------------------------------|
|--------------------------------|-----------------------------------|
|--5------------------------7----|---------------------------7-------|
|--x------------------------x----|--7------------------------x-------|
|--3------------------------5----|--x------------------------5-------|
|--------------------------------|--5--------------------------------|
|
|  E   E   E   E   S  S  E  E  E    E   E   E   E   S  S  E  E  +E
|--------------------------------|-----------------------------------|
|--------------------------------|-----------------------------------|
|-10--10---9--10---x--x-10-10-10-|-10--10---9--10---x--x-10-10-(10)\-|
|-10--10---9--10---x--x-10-10-10-|-10--10---9--10---x--x-10-10-(10)\-|
|--8---8---8---8---x--x--8--8--8-|--8---8---8---8---x--x--8--8--(8)\-|
|--------------------------------|-----------------------------------|
|
|  Q      +E   E  +Q        Q       Q      +E   E  +Q        Q
|--------------------------------|-----------------------------------|
|-10-----(10)--------------10----|-10-----(10)--------------10-------|
|-------------10-(10)------------|-------------10-(10)---------------|
|--------------------------------|-----------------------------------|
|--------------------------------|-----------------------------------|
|--------------------------------|-----------------------------------|


  A5
  E   E E E E E E E       E      E   E      E   E  E E E
  |   | | | | | | |       |      |   |      |   |  | | |
  /   / / / / / / /       /      /   /      /   /  / / /

  H         H             H                     H
|----------------------|-----------------------------------|
|----------------------|-----------------------------------|
|-6---------7----------|--9--------------------10----------|
|-x---------x----------|--x---------------------x----------|
|-4---------5----------|--7---------------------8----------|
|----------------------|-----------------------------------|
|
| W                       W
|----------------------|-----------------------------------|
|----------------------|-----------------------------------|
|----------------------|-----------------------------------|
|-7--------------------|--7--------------------------------|
|-7--------------------|--7--------------------------------|
|-5--------------------|--5--------------------------------|
|
| H..             E      +E     +E  +E     +E  +H
|----------------------|-----------------------------------|
|-----------------5pb6r|=(5)b7==(5)r(5)b7==(5)r(5)---------|
|-2--------------------|-----------------------------------|
|-2--------------------|-----------------------------------|
|-0--------------------|-----------------------------------|
|----------------------|-----------------------------------|


  D5
   E E   E   E   E  E  E E    E E   E   E   E  E  E E
   | |   |   |   |  |  | |    | |   |   |   |  |  | |
   / /   /   /   /  /  / /    / /   /   /   /  /  / /

   TP            TP           TP            TP
   H             H            H             H
|---------------12---------|-13------------16---------|
|-15-----------------------|--------------------------|
|--------------------------|--------------------------|
|--------------------------|--------------------------|
|--------------------------|--------------------------|
|--------------------------|--------------------------|
|
|  E E   E   E   E  E  Q      E E   E   E   E  E  Q
|--------------------------|--------------------------|
|--------------------------|--------------------------|
|--------------------------|--------------------------|
|--7-7---5---7---x--7--7---|--7-7---5---7---x--7--7---|
|--5-5---3---5---x--5--5---|--5-5---3---5---x--5--5---|
|--------------------------|--------------------------|
|
|  Q    +E   E  +Q     Q      Q    +E   E  +Q     Q
|--------------------------|--------------------------|
|-10---(10)-----------10---|-10---(10)-----------10---|
|-----------10-(10)--------|-----------10-(10)--------|
|--------------------------|--------------------------|
|--------------------------|--------------------------|
|--------------------------|--------------------------|


  A5
   E   E E E  E  E   E   E       E      E   E      E   E  E  E E
   |   | | |  |  |   |   |       |      |   |      |   |  |  | |
   /   / / /  /  /   /   /       /      /   /      /   /  /  / /

   TP                            TP                          TP
   H          E  E  +E   E       H.                          Q
|-17---------17-15-(15)-13----|-12--------------------------13---|
|-----------------------------|----------------------------------|
|-----------------------------|----------------------------------|
|-----------------------------|----------------------------------|
|-----------------------------|----------------------------------|
|-----------------------------|----------------------------------|
|
|  W                             W
|-----------------------------|----------------------------------|
|-----------------------------|----------------------------------|
|-----------------------------|----------------------------------|
|--7--------------------------|--7-------------------------------|
|--7--------------------------|--7-------------------------------|
|--5--------------------------|--5-------------------------------|
|
|  H..                   E      +E     +E  +E     +E  +H
|-----------------------------|----------------------------------|
|------------------------5pb6r|=(5)b7==(5)r(5)b7==(5)r(5)--------|
|--2--------------------------|----------------------------------|
|--2--------------------------|----------------------------------|
|--0--------------------------|----------------------------------|
|-----------------------------|----------------------------------|


  F5
   E   E   E   E   E     E   E  E    E   E   E   E   E     E   E   E
   |   |   |   |   |     |   |  |    |   |   |   |   |     |   |   |
   /   /   /   /   /     /   /  /    /   /   /   /   /     /   /   /

   TP                        TP      TP                        TP
   H.                        Q       H.                        Q
|---------------------------------|------------------------------------|
|-13-----------------------/15----|--------------------------/15-------|
|---------------------------------|-14---------------------------------|
|---------------------------------|------------------------------------|
|---------------------------------|------------------------------------|
|---------------------------------|------------------------------------|
|
|  E   E   E   E   S  S  E   E  E    E   E   E   E   S  S  E   E  +E
|---------------------------------|------------------------------------|
|---------------------------------|------------------------------------|
|-10--10---9--10---x--x-10--10-10-|-10--10---9--10---x--x-10--10-(10)\-|
|-10--10---9--10---x--x-10--10-10-|-10--10---9--10---x--x-10--10-(10)\-|
|--8---8---8---8---x--x--8---8--8-|--8---8---8---8---x--x--8---8--(8)\-|
|---------------------------------|------------------------------------|
|
|  Q      +E   E  +Q         Q       Q      +E   E  +Q         Q
|---------------------------------|------------------------------------|
|-10-----(10)---------------10----|-10-----(10)---------------10-------|
|-------------10-(10)-------------|-------------10-(10)----------------|
|---------------------------------|------------------------------------|
|---------------------------------|------------------------------------|
|---------------------------------|------------------------------------|


                           Q=135
  A5
   E   E E E  E E E E       E      E   E      E   E  E E E
   |   | | |  | | | |       |      |   |      |   |  | | |
   /   / / /  / / / /       /      /   /      /   /  / / /

   TP         TP            TP                    TP
   H          H             H                     H
|------------------------|-----------------------------------||
|-14---------15----------|-17--------------------18----------||
|------------------------|-----------------------------------||
|------------------------|-----------------------------------||
|------------------------|-----------------------------------||
|------------------------|-----------------------------------||
|
|  W                        W
|------------------------|-----------------------------------||
|------------------------|-----------------------------------||
|------------------------|-----------------------------------||
|--7---------------------|--7--------------------------------||
|--7---------------------|--7--------------------------------||
|--5---------------------|--5--------------------------------||
|
|  H..              E      +E     +E  +E     +E  +H
|------------------------|-----------------------------------||
|-------------------5pb6r|=(5)b7==(5)r(5)b7==(5)r(5)---------||
|--2---------------------|-----------------------------------||
|--2---------------------|-----------------------------------||
|--0---------------------|-----------------------------------||
|------------------------|-----------------------------------||


 Outro
                   Q=120
  D5
  Gtrs I, III, IV
   W               +W
   |                |
   /                /

   TP        ~~~~
                                       |3-|        |-3--|            |-3--|          |--3--|
   H.       +Q      E     +E      +S   E  E  T  T  T  T T  T T  T T  T  T T  T T  T  T  T. T.  T
|----------------|--------------------10-13-----------------------8------------------------------|
|-15-------(15)--|-13b15r(13)b15r(13)-------11-13-11p10s8-11-9-11---11p10p8-11-8-10h11-10--8--10-|
|----------------|-------------------------------------------------------------------------------|
|----------------|-------------------------------------------------------------------------------|
|----------------|-------------------------------------------------------------------------------|
|----------------|-------------------------------------------------------------------------------|


  +H                        Q   Q
   |                        |
   /                        /

                |--3--|
   E      S  S  S  S  S  E  Q   Q
|------------------------------------*|
|------------------------------------*|
|-12pb14r10----12-10-----------------*|
|-----------12-------12-10-12\-------*|
|------------------------------------*|
|------------------------------------*|




--------------------------------------------------------------------------------


Duration Legend
---------------
W - whole; H - half; Q - quarter; E - 8th; S - 16th; T - 32nd; X - 64th; a - acciaccatura
+ - note tied to previous; . - note dotted; .. - note double dotted
Uncapitalized letters represent notes that are staccato (1/2 duration)
Irregular groupings are notated above the duration line
Duration letters will always appear directly above the note/fret number it represents the
duration for.  Duration letters with no fret number below them represent rests.  Multi-
bar rests are notated in the form Wxn, where n is the number of bars to rest for.  Low
melody durations appear below the staff

Tablature Legend
----------------
 h   - hammer-on
 p   - pull-off
 b   - bend
 pb  - pre-bend
 r   - bend release (if no number after the r, then release immediately)
 /\  - slide into or out of (from/to "nowhere")
 s   - legato slide
 S   - shift slide
<n> - natural harmonic
[n]  - artificial harmonic
n(n) - tapped harmonic
 ~   - vibrato
 tr  - trill
 T   - tap
 TP  - trem. picking
 PM  - palm muting
\n/  - tremolo bar dip; n = amount to dip
 \n  - tremolo bar down
 n/  - tremolo bar up
/n\  - tremolo bar inverted dip
 =   - hold bend; also acts as connecting device for hammers/pulls
 <> - volume swell (louder/softer)
 x   - on rhythm slash represents muted slash
 o   - on rhythm slash represents single note slash

Misc Legend
-----------
 |  - bar
||  - double bar
||o - repeat start
o|| - repeat end
*|  - double bar (ending)
 :  - bar (freetime)
 $  - Segno
 &  - Coda
Tempo markers - <E/E./Q/Q./H/H.> = BPM(8/16=s8/s16), where s8 = swing 8ths, s16 = swing 16ths 
comments
print report bad tab
I want to post or [tab]
guest
You may want to rate the tab now too:
select rating
Please do not post tabs as comments. Select "correction" instead!