Oops, an error
Loading. Please wait.

Fall To Pieces Tab

ver4
ver4

Whole song

Interactive

More versions @911Tabs.com
27,725 views 48 this week
9 commentsread comments
1 2 3 4 5
excellent!
x 13
Autoscroll
+/-
esc
set tempo
stop
Contributor
Hey! There's an official Ultimate Guitar app which is ideal
for learning songs when you're away from computer. Get the app
WARNING: You are trying to view
                                    content from Ultimate-Guitar.com
                                    in an unauthorized application,
                                    which is prohibited.

                                    Please use an official Ultimate
                                    Guitar Tabs application for iPhone,
                                    iPad or Android to access legitimate
                                    chords, guitar, bass, and drum tabs
                                    from Ultimate-Guitar.com database.

                                    Type "ultimate guitar tabs" in Apple
                                    App Store's or Android Market's
                                    search to find the application.
Band- Velvet Revolver
Song- Fall To Pieces

Gtr I (D# G# C# F# A# D#) - 'Guitar 1 Clean'
Gtr II (D# G# C# F# A# D#) - 'Distortion Guitar 1'
Gtr III (D# G# C# F# A# D#) - 'Guitar 2 Distortion'
Gtr IV (D# G# C# F# A# D#) - 'Solo Guitar'

 Intro
  Moderately Slow Q=66
  D                                  C           G5      G/B   Cadd2
 4/4
  Gtr I
   S S S S S S S S S S S S S S S S   S S S S S S E +S  S S S E E
|-^3-2-----------2-----------------|---0-------------------------|
|-^3---3-------3---3---------------|-----1-------3-(3)-3-----3-3-|
|-^2-----2-0---2-----2-0-----0---0-|-0-----0---0-0-(0)-0-0---0-0-|
|-^0---------4-0---------4-0-------|-2-------2---0-(0)---0---0-2-|
|------------------------------2---|-3-------------------2h3-2-3-|
|----------------------------------|-------------3-(3)-----------|


  D                                     C            G5            G/Cadd2
   S S S S  S   S S S S S S S S S S S   S  S S S S S  E   S  S S S E E
|-^3-2------------3-2-----------------|-1--0---------------------------|
|-^3---3----------3---3---------------|-1----1--------3------3---------|
|-^2-----2--0-----2-----2-0-----0---0-|-0------0---0--0---0--------0-0-|
|-^0------------4-0---------4-0-------|-2--------2----0------------0-2-|
|---------------------------------2---|-3----------------------2h3-2-3-|
|-------------------------------------|---------------3----------------|
|
| Gtr II
|  <                                    <             <
|  Q       +Q         H                 Q.            E  +H
|-------------------------------------|--------------------------------|
|-------------------------------------|--------------------------------|
|-------------------------------------|--------------------------------|
|-------------------------------------|--------------------------------|
|--5-------(5)\-----------------------|-8------------10-(10)-----------|
|-------------------------------------|--------------------------------|


 Verse
  D                                  C           G5        G/Cadd2
   S S S S S S S S S S S S S S S S   S S S S S S E S S S S E E
|-^3-2---------3-2-----------------|-1-0-----------------------|
|-^3---3-------3---3---------------|-1---1-------3---3-----3-3-|
|-^2-----2-0---2-----2-0-----0---0-|-0-----0---0-0-0-------0-0-|
|-^0---------4-0---------4-0-------|-2-------2---0---------0-2-|
|------------------------------2---|-3-----------------2h3-2-3-|
|----------------------------------|-------------3-------------|


  D                                     C            G5        G/B   Cadd2
   S S S S  S   S S S S S S S S S S S   S  S S S S S  E  +S  S S S E E
|-^3-2--------------2-----------------|-1--0---------------------------|
|-^3---3----------3---3---------------|-1----1--------3--(3)-3-----3-3-|
|-^2-----2--0-----2-----2-0-----0---0-|-0------0---0--0--(0)---0---0-0-|
|-^0------------4-0---------4-0-------|-2--------2----0--(0)---0---0-2-|
|---------------------------------2---|-3----------------------2h3-2-3-|
|-------------------------------------|---------------3--(3)-----------|
|
| Gtr II
|  <                                    <             <
|  Q       +Q         H                 Q.            E  +H
|-------------------------------------|--------------------------------|
|-------------------------------------|--------------------------------|
|-------------------------------------|--------------------------------|
|-------------------------------------|--------------------------------|
|--5-------(5)\-----------------------|-8------------10-(10)-----------|
|-------------------------------------|--------------------------------|


  D                                   C            G5          G/B  Cadd2
   S  S S S S S S S S S S S S S S S   S  S S S S S E  S  S S S  E   E
|-^3--2---------3-2-----------------|----0---------3------------------|
|-^3----3-------3---3---------------|-1----1-------3-----3------------|
|-^2------2-0---2-----2-0-----0---0-|-0------0---0-0------------0---0-|
|-^0----------4-0---------4-0-------|-2--------2---0--0---------0---2-|
|-------------------------------2---|-3--------------------2h3--2---3-|
|-----------------------------------|--------------3------------------|
|
|                                     <            <
|  Q        Q       H                 Q.           E +Q        +Q
|-----------------------------------|---------------------------------|
|-----------------------------------|---------------------------------|
|-----------------------------------|---------------------------------|
|-----------------------------------|---------------------------------|
|-----------------------------------|-3-------------------------------|
|-10\-------------------------------|--------------3-(3)-------(3)\---|


  D                                  C            G5
   S S S S S S S S S S S S S S S S   S  S S S S S  E  +H
|-^3-2---------3-2-----------------|----0----------3--(3)---------|
|-^3---3-------3---3---------------|-1----1--------3--(3)---------|
|-^2-----2-0---2-----2-0-----0---0-|-0------0---0--0--(0)---------|
|-^0---------4-0---------4-0-------|-2--------2----0--(0)---------|
|------------------------------2---|-3----------------------------|
|----------------------------------|---------------3--(3)---------|
|
|                                    <             <
|                                                  ~~~~~~~~~~~~~~~
|  W                                 Q.            E  +Q.    +E
|----------------------------------|------------------------------|
|----------------------------------|------------------------------|
|----------------------------------|------------------------------|
|----------------------------------|------------------------------|
|----------------------------------|-8------------10-(10)---(10)\-|
|----------------------------------|------------------------------|


 Pre Chorus
  A                                      G5         D
  Gtr II
  E.     S +E    E   +H                  E.   S E   E +Q         S  E.
|--------------------------------------|-----------------------------------|
|--------------------------------------|-----------------------------------|
|--------------------------------------|------------7-(7)--------7---------|
|-7------7-(7)---7---(7)---------------|-5----5-5---7-(7)--------7---------|
|-7------7-(7)---7---(7)---------------|-5----5-5---5-(5)--------5---------|
|-5------5-(5)---5---(5)---------------|-3----3-3-------------------3b3.5--|
|
| Gtr III
| S  S S S  S  S S S  S  S S S S S S S   E  S S S S E +S  T T E +S  E.
|--------------------------------------|------------2-(2)-2-2-2-(2)--------|
|-3--2-----------3-2-------------------|------3-3-3-3-(3)-3-3-3-(3)--------|
|-2----2--------------2----------------|-0--0-0-0-0-2-(2)-2-2-2-(2)--------|
|-2------2--0------------2-0-----0---0-|-0--0-0-0-0-0-(0)-0-0-0-(0)--------|
|-0------------4-------------4-0-----0-|-----------------------------------|
|----------------------------------2---|-3--3-3-3-3-----------------3b3.5--|


  A                                    G5       A           G5
  Q.           E   +H                  Q.       E +Q     S  E.
|------------------------------------|----------------------------|
|------------------------------------|----------------------------|
|------------------------------------|----------------------------|
|-7------------7---(7)---------------|-5--------7-(7)----7--------|
|-7------------7---(7)---------------|-5--------7-(7)----7--------|
|-5------------5---(5)---------------|-3--------5-(5)----5--3b3.5-|
|
| S  S S S S S S S  S  S S S S S S S   E  S S E E +E  E +S  E.
|------------------------------------|----------------------3-----|
|-3--2---------3-2-------------------|-3--3-3-3-2-(2)-2-(2)-3-----|
|-2----2------------2----------------|-0--0-0-0-2-(2)-2-(2)-0-----|
|-2------2-0-----------2-0-----0---0-|-0--0-0-0-2-(2)-2-(2)-0-----|
|-0----------4-------------4-0-----0-|----------0-(0)-0-(0)-------|
|--------------------------------2---|-3--3-3-3-------------3-----|


  D
  Gtr IV
                                                  ~~~
   S   S  S  S  S  S  E       +S   S  S  S  S  S  E
|-15--14-------------14b15---(14)-14------------------|
|--------15--------------------------15---------------|
|-----------14-12s11--------------------14-12s11------|
|------------------------------------------------12---|
|-----------------------------------------------------|
|-----------------------------------------------------|
|
| Gtr II
|  E.        S  S  S  E       +S   S  E     S  S  E
|-----------------------------------------------------|
|--7---------7--7--0--7-------(7)--7--7-----0--7--7S==|
|--7---------7--7--0--7-------(7)--7--7-----0--7--7S==|
|--7---------7--7--0--7-------(7)--7--7-----0--7--7S==|
|--5---------5--5--0--5-------(5)--5--5-----0--5--5S==|
|-----------------------------------------------------|
|
| Gtr III
|  S   S  S  S  S  S  S    S   S   S  S  S  S  S  S S
|--3---2--2--2--2----------2---2---2--2--------2--2---|
|--3---3--3--3--3--0--0----3---3---3--3--0--0--3--3-0-|
|--0---2--2--2--2--0--0----2---2---2--2--0--0--2--2-0-|
|--0---0--0--0--0--0--0----0---0---0--0--0--0--0--0-0-|
|-----------------------------------------------------|
|-----------------------------------------------------|


  C                 G5        G/B       Cadd2
                     ~~~~~~~        ~~
   S   S  S  S  S S  E  +E    S  S  Q
|-13--12----------------------------------|
|--------13-------------------------------|
|-----------12-10s9-----------------------|
|-----------------------------9s10-12-----|
|-------------------10-(10)---------------|
|-----------------------------------------|
|
|                                   ~~
|  E.        S  S S  E  +S  S S  S  E S S
|-----------------------------------------|
|--5---------5--5-0-----------------------|
|--5---------5--5-0-----------------------|
|--5---------5--5-0--5--(5)-5-----------0-|
|--3---------3--3----5--(5)-5-2s=3--2-3-0-|
|--------------------3--(3)-3-------------|
|
|  S   S  S  S  S S  E  +S  S S  S  E E
|--0---0--0--0--0----3--(3)-3-3-----3-3---|
|--1---1--1--1--1----3--(3)-3-3-----3-3---|
|--0---0--0--0--0-0--0--(0)-0-0-----0-0---|
|--3---2--2--2--2-0--0--(0)-0-0-----0-2---|
|--3---3--3--3--3-0-----------2h=3--2-3---|
|--------------------3--(3)-3-------------|


  D
                                                  ~~~
   S   S  S  S  S  S  E       +S   S  S  S  S  S  E
|-15--14-------------14b15---(14)-14------------------|
|--------15--------------------------15---------------|
|-----------14-12s11--------------------14-12s11------|
|------------------------------------------------12---|
|-----------------------------------------------------|
|-----------------------------------------------------|
|
|  E.        S  S  S  E       +S   S  E     S  S  E
|-----------------------------------------------------|
|--7---------7--7--0--7-------(7)--7--7-----0--7--7S==|
|--7---------7--7--0--7-------(7)--7--7-----0--7--7S==|
|--7---------7--7--0--7-------(7)--7--7-----0--7--7S==|
|--5---------5--5--0--5-------(5)--5--5-----0--5--5S==|
|-----------------------------------------------------|
|
|  S   S  S  S  S  S  S    S   S   S  S  S  S  S  S S
|--3---2--2--2--2----------2---2---2--2--------2--2---|
|--3---3--3--3--3--0--0----3---3---3--3--0--0--3--3-0-|
|--0---2--2--2--2--0--0----2---2---2--2--0--0--2--2-0-|
|--0---0--0--0--0--0--0----0---0---0--0--0--0--0--0-0-|
|-----------------------------------------------------|
|-----------------------------------------------------|


  C                 G5
                     ~~~~~~~
   S   S  S  S  S S  E  +H
|-13--12-----------------------|
|--------13--------------------|
|-----------12-10s9------------|
|------------------------------|
|-------------------10-(10)----|
|------------------------------|
|
|  E.        S  S S  E  +H
|------------------------------|
|--5---------5--5-0------------|
|--5---------5--5-0------------|
|--5---------5--5-0--5--(5)----|
|--3---------3--3----5--(5)----|
|--------------------3--(3)----|
|
|  S   S  S  S  S S  E  +H
|--0---0--0--0--0----3--(3)----|
|--1---1--1--1--1----3--(3)----|
|--0---0--0--0--0-0--0--(0)----|
|--3---2--2--2--2-0--0--(0)----|
|--3---3--3--3--3-0------------|
|--------------------3--(3)----|


 Verse
  D                                  C            G5      G/B   Cadd2
  Gtr I
   S S S S S S S S S S S S S S S S   S  S S S S S E +S  S S S E  E
|-^3-2-----------2-----------------|-1--0----------------------------|
|-^3---3-------3---3---------------|-1----1-------3-(3)-3-----3--3---|
|-^2-----2-0---2-----2-0-----0---0-|-0------0---0-0-(0)---0---0--0---|
|-^0---------4-0---------4-0-------|-2--------2---0-(0)---0---0--2---|
|------------------------------2---|-3--------------------2h3-2--3---|
|----------------------------------|--------------3-(3)--------------|
|
| Gtr II
|                                    <            <
|  W                                 Q.           E +Q.         +E
|----------------------------------|---------------------------------|
|----------------------------------|---------------------------------|
|----------------------------------|---------------------------------|
|----------------------------------|---------------------------------|
|----------------------------------|-3-------------------------------|
|----------------------------------|--------------3-(3)---------(3)\-|


  D                                  C            G5          G/B      Cadd2
   S S S S S S S S S S S S S S S S   S  S S S S S E     +S  S S S  E   E
|-^3-2-----------2-----------------|-1--0---------------------------------|
|-^3---3-------3---3---------------|-1----1-------3-----(3)-3------3---3--|
|-^2-----2-0---2-----2-0-----0---0-|-0------0---0-0-----(0)---0----0---0--|
|-^0---------4-0---------4-0-------|-2--------2---0-----(0)---0----0---2--|
|------------------------------2---|-3------------------------2h3--2---3--|
|----------------------------------|--------------3-----(3)---------------|
|
|                                    <            <
|  W                                 Q.           S  S  +Q         S E.
|----------------------------------|--------------------------------------|
|----------------------------------|--------------------------------------|
|----------------------------------|--------------------------------------|
|----------------------------------|--------------------------------------|
|----------------------------------|-8------------8s10-(10)-------10s8s===|
|----------------------------------|--------------------------------------|


  D                                  C            G5          G/Cadd2
   S S S S S S S S S S S S S S S S   S  S S S S S E  S  S S S E E
|-^3-2---------3-2-----------------|----0---------3---------------|
|-^3---3-------3---3---------------|-1----1-------3-----3---------|
|-^2-----2-0---2-----2-0-----0---0-|-0------0---0-0-----------0-0-|
|-^0---------4-0---------4-0-------|-2--------2---0--0--------0-2-|
|------------------------------2---|-3--------------------2h3-2-3-|
|----------------------------------|--------------3---------------|
|
|                                                 <
|  W                                 Q.           E +H
|----------------------------------|------------------------------|
|----------------------------------|------------------------------|
|----------------------------------|------------------------------|
|----------------------------------|------------------------------|
|--5-------------------------------|-3----------------------------|
|----------------------------------|--------------3-(3)-----------|


  D                                  C            G5
   S S S S S S S S S S S S S S S S   S  S S S S S E     +H
|-^3-2---------3-2-----------------|----0---------3-----(3)----------|
|-^3---3-------3---3---------------|-1----1-------3-----(3)----------|
|-^2-----2-0---2-----2-0-----0---0-|-0------0---0-0-----(0)----------|
|-^0---------4-0---------4-0-------|-2--------2---0-----(0)----------|
|------------------------------2---|-3-------------------------------|
|----------------------------------|--------------3-----(3)----------|
|
|                                    <
|  W                                 Q.           S  S  +Q    +Q
|----------------------------------|---------------------------------|
|----------------------------------|---------------------------------|
|----------------------------------|---------------------------------|
|----------------------------------|---------------------------------|
|--5-------------------------------|-8------------8s10-(10)--(10)\---|
|----------------------------------|---------------------------------|


 Pre Chorus
  A                                      G5     D
  Gtr II
  E.     S +E    E   +H                  E. S E E +Q     S  E.
|--------------------------------------|--------------------------|
|--------------------------------------|--------------------------|
|--------------------------------------|--------7-(7)----7--------|
|-7------7-(7)---7---(7)---------------|-5--5-5-7-(7)----7--------|
|-7------7-(7)---7---(7)---------------|-5--5-5-5-(5)----5--------|
|-5------5-(5)---5---(5)---------------|-3--3-3-------------3b3.5-|
|
| Gtr III
| S  S S S  S  S S S  S  S S S S S S S   E. S E E +E  E +S  E.
|--------------------------------------|-3--3-3-2-(2)-2-(2)-------|
|-3--2-----------3-2-------------------|-3--3-3-3-(3)-3-(3)-------|
|-2----2---------2----2----------------|-0--0-0-2-(2)-2-(2)-------|
|-2------2--0----2-------2-0-----0---0-|-0--0-0-0-(0)-0-(0)-------|
|-0------------4-0-----------4-0-----0-|--------------------------|
|----------------------------------2---|-3--3-3-------------3b3.5-|


  A                                    G5               A   G5
  Q.           E   +H                  Q.     E +Q       S  E.
|------------------------------------|----------------------------|
|------------------------------------|----------------------------|
|------------------------------------|----------------------------|
|-7------------7---(7)---------------|-5------7-(7)------7--------|
|-7------------7---(7)---------------|-5------7-(7)------7--------|
|-5------------5---(5)---------------|-3------5-(5)------5--3b3.5-|
|
| S  S S S S S S S  S  S S S S S S S   E. S E E +S  S E +S  E.
|------------------------------------|-3--3-3---------------3-----|
|-3--2---------3-2-------------------|-3--3-3-2-(2)-2-2-(2)-3-----|
|-2----2-------2----2----------------|-0--0-0-2-(2)-2-2-(2)-0-----|
|-2------2-0---2-------2-0-----0---0-|-0--0-0-2-(2)-2-2-(2)-0-----|
|-0----------4-0-----------4-0-----0-|--------0-(0)-0-0-(0)-------|
|--------------------------------2---|-3--3-3---------------3-----|


   Chorus
    D                                    C
                                                                  ~~~~
    E.     S S S E   +S  S E   S S E     E.     S S S E +S  S S S E E  3x
||-------------------------------------|-------------------------------||
||o-7------7-7-0-7---(7)-7-7---0-7-7S==|=5------5-5-------------------o||
||--7------7-7-0-7---(7)-7-7---0-7-7S==|=5------5-5-0------------------||
||--7------7-7-0-7---(7)-7-7---0-7-7S==|=5------5-5-0-5-(5)-5----------||
||o-5------5-5-0-5---(5)-5-5---0-5-5S==|=3------3-3-0-5-(5)-5-2s3-2-3-o||
||-------------------------------------|--------------3-(3)-3----------||
|
|   S  S S S S S S S  S  S S S S S S S   S  S S S S S E +S  S S S E E  3x
||--3--2-2-2-2-----2--2--2-2-----2-2---|-0--0-0-0-0---3-(3)-3-3---3-3--||
||o-3--3-3-3-3-0-0-3--3--3-3-0-0-3-3-0-|-1--1-1-1-1---3-(3)-3-3---3-3-o||
||--0--2-2-2-2-0-0-2--2--2-2-0-0-2-2-0-|-0--0-0-0-0-0-0-(0)-0-0---0-0--||
||--0--0-0-0-0-0-0-0--0--0-0-0-0-0-0-0-|-3--2-2-2-2-0-0-(0)-0-0---0-2--||
||o------------------------------------|-3--3-3-3-3-0---------2h3-2-3-o||
||-------------------------------------|--------------3-(3)-3----------||


  D                                    C
                                                              ~~~~
  E.     S S S E   +S  S E   S S E     E.     S S S E +S  S E S S S S
|------------------------------------|--------------------------------|
|-7------7-7-0-7---(7)-7-7---0-7-7S==|=5------5-5---------------------|
|-7------7-7-0-7---(7)-7-7---0-7-7S==|=5------5-5-0-------------------|
|-7------7-7-0-7---(7)-7-7---0-7-7S==|=5------5-5-0-5-(5)-5-5-5-5-0-0-|
|-5------5-5-0-5---(5)-5-5---0-5-5S==|=3------3-3-0-5-(5)-5-5-5-5-0-0-|
|------------------------------------|--------------3-(3)-3-3-3-3-0-0-|
|
| S  S S S S S S S  S  S S S S S S S   S  S S S S S E +H
|----2-2-2-2-----2--2--2-2-----2-2---|-0--0-0-0-0---3-(3)-------------|
|-3--3-3-3-3-0-0-3--3--3-3-0-0-3-3-0-|-1--1-1-1-1---3-(3)-------------|
|-0--2-2-2-2-0-0-2--2--2-2-0-0-2-2-0-|-0--0-0-0-0-0-0-(0)-------------|
|-0--0-0-0-0-0-0-0--0--0-0-0-0-0-0-0-|-3--2-2-2-2-0-0-(0)-------------|
|------------------------------------|-3--3-3-3-3-0-------------------|
|------------------------------------|--------------3-(3)-------------|


   Bridge
    Bmadd4                          G6
    Gtr II
    W                               W
||--------------------------------|-3--------------------------------||
||o-------------------------------|-3-------------------------------o||
||--4-----------------------------|-0--------------------------------||
||--4-----------------------------|-0--------------------------------||
||o-2-----------------------------|---------------------------------o||
||--------------------------------|-3--------------------------------||
|
|   Gtr I
|   E S S S S S S S S S S S S S S   S S S S S S S S S S S S S S S S
||--------0---------------0-------|---------0---------------0--------||
||o---3-----3---3-----3-----3---3-|-----3-----3---3-----3-----3---3-o||
||--4---4-----4---4-4---4-----4---|---4---4-----4-----4---4-----4----||
||--------------------------------|-5---------------5----------------||
||o-------------------------------|---------------------------------o||
||--------------------------------|----------------------------------||


  Bmadd4                            A
  S S S S S S S S S S E   S S S S   E.   S S S E   +S  S S S S S S T T
|---------------------------------|------------------------------------|
|---------------------------------|------------------------------------|
|-4-4-4-4-4-4-4-4-4-4-4---4-4-4-0-|-2----2-2-2-2---(2)-2-2-2-2-2-2-0-0-|
|-4-4-4-4-4-4-4-4-4-4-4---4-4-4-0-|-2----2-2-2-2---(2)-2-2-2-2-2-2-0-0-|
|-2-2-2-2-2-2-2-2-2-2-2---2-2-2-0-|-0----0-0-0-0---(0)-0-0-0-0-0-0-----|
|---------------------------------|--------------------------------3-3-|
|
| E   S S S S S S S S S S S S S S   E  S S S S S S  S  S S S S S S S
|---------0---------------0-------|--------------0---------------------|
|-----3-----3---3-----3-----3---3-|----2---3-2-----------2---3-2-------|
|-4-----4-----4---4-4---4-----4---|-2----2-----2-------2---2-----2-0---|
|---------------------------------|------------------------------------|
|---------------------------------|-----------------0------------------|
|---------------------------------|------------------------------------|


  G5
  E.   S S S E S S E   S S S S   E.   S S S S S S S S S S  E.
|-3----3-3-3-3-3-3-3---3-3-3-3-|-3----3-3-3-3-3-3-3-3-3-3--------|
|-3----3-3-3-3-3-3-3---3-3-3-3-|-3----3-3-3-3-3-3-3-3-3-3--------|
|-0----0-0-0-0-0-0-0---0-0-0-0-|-0----0-0-0-0-0-0-0-0-0-0--------|
|-0----0-0-0-0-0-0-0---0-0-0-0-|-0----0-0-0-0-0-0-0-0-0-0--------|
|------------------------------|---------------------------------|
|-3----3-3-3-3-3-3-3---3-3-3-3-|-3----3-3-3-3-3-3-3-3-3-3-15\----|
|
| E  S S E   E S S S S S S S S   E  S S E   E   S S S S S  S  E
|------------------------------|---------------------------------|
|-1----0-----1---0-----1-0-----|-1----0-----1-----0-----1--0-----|
|--------------------0-----0---|----------------------0-------0--|
|----2---0-----2---0---------0-|----2---0-------2---0------------|
|------------------------------|---------------------------------|
|------------------------------|---------------------------------|


 Guitar Solo
  D
  Gtr IV
                                 ~~~~~~~~~
   Q            +E     E        +E.           +T        T       +E     +E
|-------------------------------------------------------------------------------|
|-17b19========(17)r==17b19====(17)pb19======(17)pb19==17pb19==(17)r==(17)b19r==|
|-------------------------------------------------------------------------------|
|-------------------------------------------------------------------------------|
|-------------------------------------------------------------------------------|
|-------------------------------------------------------------------------------|
|
| Gtr II
|  E.        S   E     E        +S       S E                     S  S   E
|-------------------------------------------------------------------------------|
|--7---------7---7-----7--------(7)------7-7---------------------0--7---7S======|
|--7---------7---7-----7--------(7)------7-7---------------------0--7---7S======|
|--7---------7---7-----7--------(7)------7-7---------------------0--7---7S======|
|--5---------5---5-----5--------(5)------5-5---------------------0--5---5S======|
|-------------------------------------------------------------------------------|
|
| Gtr III
|  S     S S S   S  S  S     S   S       S S   S                 S  S   S     S
|--3-----2-2-2---2-----------2---2-------2-2------------------------2---2-------|
|--3-----3-3-3---3--0--0-----3---3-------3-3---0-----------------0--3---3-----0-|
|--0-----2-2-2---2--0--0-----2---2-------2-2---0-----------------0--2---2-----0-|
|--0-----0-0-0---0--0--0-----0---0-------0-0---0-----------------0--0---0-----0-|
|-------------------------------------------------------------------------------|
|-------------------------------------------------------------------------------|


  C                              G5           G/B        Cadd2
                                     ~~~~~~~
                      |---3----|
   +S      E.        +S   S    S  S  S  +E     E    +Q
|-------------------------------------------------------------|
|-(17)b19r17b19r====(17)-15---17----15-(15)---17---(17)\------|
|--------------------------------16---------------------------|
|-------------------------------------------------------------|
|-------------------------------------------------------------|
|-------------------------------------------------------------|
|
|   E.            S   S     S     E     +S  S  E     E   S S
|-------------------------------------------------------------|
|---5-------------5---5---------------------------------------|
|---5-------------5---5-----0------------------------------0--|
|---5-------------5---5-----0-----5-----(5)-5--5-----5---5-0--|
|---3-------------3---3-----0-----5-----(5)-5--5-----5---5-0--|
|---------------------------------3-----(3)-3--3-----3---3----|
|
|   S      S    S S   S     S     E     +S  S  S S   E   E
|---0------0----0-0---0-----------3-----(3)-3--3-----3---3----|
|---1------1----1-1---1-----------3-----(3)-3--3-----3---3----|
|---0------0----0-0---0-----0-----0-----(0)-0--0-----0---0----|
|---3------2----2-2---2-----0-----0-----(0)-0--0-----0---2----|
|---3------3----3-3---3-----0------------------2h3---2---3----|
|---------------------------------3-----(3)-3-----------------|


  D
                                                        ~~~~~~~
                          |---3---|
   Q            +S   +S   S  S    S     +S   S     +S   S  +E     T  T  T  T
|----------------------------------------------------------------------------|
|-20b22========(20)r(20)-19-20---18b19-(18)-18b19-(18)-----------------------|
|------------------------------------------------------19-(19)---17h19p17p16-|
|----------------------------------------------------------------------------|
|----------------------------------------------------------------------------|
|----------------------------------------------------------------------------|
|
|  E.        S   E        E             +S   S      E       S  S  E
|----------------------------------------------------------------------------|
|--7---------7---7--------7-------------(7)--7------7-------0--7--7S=========|
|--7---------7---7--------7-------------(7)--7------7-------0--7--7S=========|
|--7---------7---7--------7-------------(7)--7------7-------0--7--7S=========|
|--5---------5---5--------5-------------(5)--5------5-------0--5--5S=========|
|----------------------------------------------------------------------------|
|
|  S     S S S   S    S   S    S         S   S      S   S   S  S  S     S
|--3-----2-2-2---2-------------2---------2---2------2----------2--2----------|
|--3-----3-3-3---3----0---0----3---------3---3------3---0---0--3--3-----0----|
|--0-----2-2-2---2----0---0----2---------2---2------2---0---0--2--2-----0----|
|--0-----0-0-0---0----0---0----0---------0---0------0---0---0--0--0-----0----|
|----------------------------------------------------------------------------|
|----------------------------------------------------------------------------|


  C                       G5                    G/B           Cadd2
                                      ~~~~~~~~~
                           |----3-----|
   S.    T  T  T  S  S  S  S  S      +S   +E     +S  S  E      S       S
|--------------------------------------------------------------------------|
|---------------------------------------------------15-15-------------15---|
|-17----16h17p16s14-16-14h16p14b16==(14)-(14)r==(14)---14b16==14pb16=======|
|--------------------------------------------------------------------------|
|--------------------------------------------------------------------------|
|--------------------------------------------------------------------------|
|
|  E.             S  S  S  E              +S  S   E     E      S       S
|--------------------------------------------------------------------------|
|--5--------------5--5-----------------------------------------------------|
|--5--------------5--5--0----------------------------------------------0---|
|--5--------------5--5--0--5--------------(5)-5---5-----5------5-------0---|
|--3--------------3--3--0--5--------------(5)-5---5-----5------5-------0---|
|--------------------------3--------------(3)-3---3-----3------3-----------|
|
|  S  S     S     S  S  S  E              +S  S   S  S  E      E
|--0--0-----0-----0--0-----3--------------(3)-3---3-----3------3-----------|
|--1--1-----1-----1--1-----3--------------(3)-3---3-----3------3-----------|
|--0--0-----0-----0--0--0--0--------------(0)-0---0-----0------0-----------|
|--3--2-----2-----2--2--0--0--------------(0)-0---0-----0------2-----------|
|--3--3-----3-----3--3--0-------------------------2h=3--2------3-----------|
|--------------------------3--------------(3)-3----------------------------|


  D                                                                          C
       ~~~~                                         ~~~~~~~
                     |---3---|
   S  +E.      S  S  S  S    S     +S   S  T  T  T  T  +E     T  S     T
|---------------------------------------------------------------------15b17==|
|-------------------15------17b19-(17)-17-15-17----15-(15)------15\----------|
|-14r(14)-----14s16----16-----------------------16-----------16--------------|
|----------------------------------------------------------------------------|
|----------------------------------------------------------------------------|
|----------------------------------------------------------------------------|
|
|  E.       S  S  S  E             +S   S  E            S  S  E
|----------------------------------------------------------------------------|
|--7--------7--7--5--7-------------(7)--7--7------------5--7--7--------------|
|--7--------7--7--5--7-------------(7)--7--7------------5--7--7--------------|
|--7--------7--7--5--7-------------(7)--7--7------------5--7--7--------------|
|--5--------5--5--5--5-------------(5)--5--5------------5--5--5--------------|
|----------------------------------------------------------------------------|
|
|  S   S  S S  S  S  S    S         S   S  S     S      S  S  S     S
|--3---2--2-2--2----------2---------2---2--2---------------2--2--------------|
|--3---3--3-3--3--0--0----3---------3---3--3-----0------0--3--3-----0--------|
|--0---2--2-2--2--0--0----2---------2---2--2-----0------0--2--2-----0--------|
|--0---0--0-0--0--0--0----0---------0---0--0-----0------0--0--0-----0--------|
|----------------------------------------------------------------------------|
|----------------------------------------------------------------------------|


                           G5                  G/B                 Cadd2
                                                        ~~~~~~~
                            |--3--|             |---3---|           |--3--|
   +E.      +S      +S   S  S  S  S     +S   S  S  S    S  +E       S  S  S
|-(15)r====(15)b17-(15)-15-14-15-14b15-(14)-14------------------------------|
|----------------------------------------------15------15-(15)--------15----|
|-------------------------------------------------14---------------14----16-|
|---------------------------------------------------------------------------|
|---------------------------------------------------------------------------|
|---------------------------------------------------------------------------|
|
|   E.       S       S   S  E           +S   S  S    S      S   E.
|---------------------------------------------------------------------------|
|---5--------5-------5---5--------------------------------------------------|
|---5--------5-------5---5--------------------------------------------------|
|---5--------5-------5---5--5-----------(5)--5--5----5------5---------------|
|---3--------3-------3---3--5-----------(5)--5--5----5------5---------------|
|---------------------------3-----------(3)--3--3----3------3--15\----------|
|
|   S  S S   S       S   S  E           +S   S  S    S      E       E
|---0--0-0---0-------0------3-----------(3)--3--3-----------3-------3-------|
|---1--1-1---1-------1------3-----------(3)--3--3-----------3-------3-------|
|---0--0-0---0-------0---0--0-----------(0)--0--0-----------0-------0-------|
|---3--2-2---2-------2---0--0-----------(0)--0--0-----------0-------2-------|
|---3--3-3---3-------3---0----------------------2h===3------2-------3-------|
|---------------------------3-----------(3)--3------------------------------|


  Em
            ~~~~
   E       +E     T  T  E       +S   T  T  E       +S   S  S  S  S
|----------------12-----------------12--------------------12----14b15-|
|-17b19r==(17)------12-15b17---(15)----12-15b17---(15)-15----15-------|
|---------------------------------------------------------------------|
|---------------------------------------------------------------------|
|---------------------------------------------------------------------|
|---------------------------------------------------------------------|
|
|                 PM-----------------------------------|
|  S    S   S  S  S     S    S   S   S     S    S   S   S  S  S  S
|---------------------------------------------------------------------|
|---------------------------------------------------------------------|
|---------------------------------------------------------------------|
|--2----2---2--2--2-----2----2---2---2-----2----2---2---2-------------|
|--2----2---2--2--2-----2----2---2---2-----2----2---2---2-------------|
|--0----0---0--0--0-----0----0---0---0-----0----0---0---0--0--0--0----|
|
|  E.          S  S     S    E       S     E.           S  S  S  S
|--0-----------0--0-----0----0-------0-----0------------0--0--0--0----|
|--0-----------0--0-----0----0-------0-----0------------0--0--0--0----|
|--0-----------0--0-----0----0-------0-----0------------0--0--0--0----|
|--2-----------2--2-----2----2-------2-----2------------2--2--2--2----|
|--2-----------2--2-----2----2-------2-----2------------2--2--2--2----|
|--0-----------0--0-----0----0-------0-----0------------0--0--0--0----|


  G5                    A                        G5
                                                         |--3---|
   +E.      S     +E     E       +E     Q               +S   S  S
|-(14)-----14b15-(14)---15b17---(15)---15b17r==========(15)-14-15-|
|-----------------------------------------------------------------|
|-----------------------------------------------------------------|
|-----------------------------------------------------------------|
|-----------------------------------------------------------------|
|-----------------------------------------------------------------|
|
|   S  S S  S      S  S  S    S   S  S  S    S S E.
|-----------------------------------------------------------------|
|-----------------------------------------------------------------|
|-----------------------------------------------------------------|
|---5--5-5--5------5--5--7----7---7--7--7----7-7------------------|
|---5--5-5--5------5--5--7----7---7--7--7----7-7------------------|
|---3--3-3--3------3--3--5----5---5--5--5----5-5-3b3.5------------|
|
|   E.      S      E     S    S   S  S  E      S E.
|---3-------3------3-----------------------------3----------------|
|---3-------3------3-----2----2---2--2--2------2-3----------------|
|---0-------0------0-----2----2---2--2--2------2-0----------------|
|---0-------0------0-----2----2---2--2--2------2-0----------------|
|------------------------0----0---0--0--0------0------------------|
|---3-------3------3-----------------------------3----------------|


 Chorus
  D
                                    ~~~~
   H                    +Q         +Q
|-14b15================(14)r======(14)-------|
|--------------------------------------------|
|--------------------------------------------|
|--------------------------------------------|
|--------------------------------------------|
|--------------------------------------------|
|
|  E.        S S S E    +S  S E     S  S E
|--------------------------------------------|
|--7---------7-7-0-7----(7)-7-7-----0--7-7S==|
|--7---------7-7-0-7----(7)-7-7-----0--7-7S==|
|--7---------7-7-0-7----(7)-7-7-----0--7-7S==|
|--5---------5-5-0-5----(5)-5-5-----0--5-5S==|
|--------------------------------------------|
|
|  S     S S S S S S S   S  S S S   S  S S S
|--3-----2-2-2-2-----2---2--2-2--------2-2---|
|--3-----3-3-3-3-0-0-3---3--3-3-0---0--3-3-0-|
|--0-----2-2-2-2-0-0-2---2--2-2-0---0--2-2-0-|
|--0-----0-0-0-0-0-0-0---0--0-0-0---0--0-0-0-|
|--------------------------------------------|
|--------------------------------------------|


  C                                    G/B       Cadd2
                              ~~~~~~~
                   |---3---|
   E        +E     S  S    S  E  +E     +Q.
|----------------------------------------------------|
|-17pb19r==(17)---15-17------15-(15)---(15)\---------|
|-------------------------16-------------------------|
|----------------------------------------------------|
|----------------------------------------------------|
|----------------------------------------------------|
|
|                                              ~
|  E.           S  S    S     E  +S  S   S   S E S S
|----------------------------------------------------|
|--5------------5--5----0----------------------------|
|--5------------5--5----0----------------------------|
|--5------------5--5----0-----5--(5)-5-------------0-|
|--3------------3--3----------5--(5)-5---2s==3-2-3-0-|
|-----------------------------3--(3)-3---------------|
|
|  S     S   S  S  S    S     E  +S  S   S   S E E
|--0-----0---0--0--0----------3--(3)-3---3-----3-3---|
|--1-----1---1--1--1----------3--(3)-3---3-----3-3---|
|--0-----0---0--0--0----0-----0--(0)-0---0-----0-0---|
|--3-----2---2--2--2----0-----0--(0)-0---0-----0-2---|
|--3-----3---3--3--3----0----------------2h==3-2-3---|
|-----------------------------3--(3)-3---------------|


    D                                    C                    G/B   Cadd2
    Gtr II
                                                                  ~
    E.     S S S E   +S  S E   S S E     E.     S S S E +S  S S S E S S
||-------------------------------------|----------------------------------||
||o-7------7-7-0-7---(7)-7-7---0-7-7S==|=5------5-5-0--------------------o||
||--7------7-7-0-7---(7)-7-7---0-7-7S==|=5------5-5-0---------------------||
||--7------7-7-0-7---(7)-7-7---0-7-7S==|=5------5-5-0-5-(5)-5---------0---||
||o-5------5-5-0-5---(5)-5-5---0-5-5S==|=3------3-3---5-(5)-5-2s3-2-3-0--o||
||-------------------------------------|--------------3-(3)-3-------------||
|
|   Gtr III
|   S  S S S S S S S  S  S S S S S S S   S  S S S S S E +S  S S S E E
||--3--2-2-2-2-----2--2--2-2-----2-2---|-0--0-0-0-0---3-(3)-3-3---3-3-----||
||o-3--3-3-3-3-0-0-3--3--3-3-0-0-3-3-0-|-1--1-1-1-1---3-(3)-3-3---3-3----o||
||--0--2-2-2-2-0-0-2--2--2-2-0-0-2-2-0-|-0--0-0-0-0-0-0-(0)-0-0---0-0-----||
||--0--0-0-0-0-0-0-0--0--0-0-0-0-0-0-0-|-3--2-2-2-2-0-0-(0)-0-0---0-2-----||
||o------------------------------------|-3--3-3-3-3-0---------2h3-2-3----o||
||-------------------------------------|--------------3-(3)-3-------------||


  D                                    C              G5
  E.     S S S E   +S  S E   S S E     E.     S  S  S E +S  S S S S S  E
|------------------------------------|---------------------------------------|
|------------------------------------|--------5--5---------------------------|
|-7------7-7-0-7---(7)-7-7---0-7-7---|-5------5--5--0------------------------|
|-7------7-7-0-7---(7)-7-7---0-7-7---|-5------5--5--0-5-(5)-5-5-5-5-5--------|
|-5------5-5-0-5---(5)-5-5---0-5-5---|-3------3--3--0-5-(5)-5-5-5-5-5-10\----|
|------------------------------------|--------------0-3-(3)-3-3-3-3-3-10\----|
|
| S  S S S S S S S  E    S S S S S S   S  S S S +E    E +S  S E   S S  S  S
|-3--2-2-2-2-----2--2----2-----2-2---|-0--0-0-0-(0)---3-(3)-3-3---3-3--3--3--|
|-3--3-3-3-3-0-0-3--3----3-0-0-3-3---|-1--1-1-1-(1)---3-(3)-3-3---3-3--3--3--|
|-0--2-2-2-2-0-0-2--2----2-0-0-2-2-0-|-0--0-0-0-(0)---0-(0)-0-0---0-0--0--0--|
|-0--0-0-0-0-0-0-0--0----0-0-0-0-0-0-|-2--2-2-2-(2)---0-(0)-0-0---0-0--0--0--|
|----------------------------------0-|-3--3-3-3-(3)--------------------------|
|------------------------------------|----------------3-(3)-3-3---3-3--3--3--|


   Outro Chorus
    D
    Gtr IV
                                                    ~~~
     S   S  S  S  S  S  E       +S   S  S  S  S  S  E
||--15--14-------------14b15---(14)-14------------------|
||o--------15--------------------------15---------------|
||------------14-12s11--------------------14-12s11------|
||-------------------------------------------------12---|
||o-----------------------------------------------------|
||------------------------------------------------------|
|
|   Gtr II
|    E.        S  S  S  E       +S   S  E     S  S  E
||------------------------------------------------------|
||o--7---------7--7--0--7-------(7)--7--7-----0--7--7S==|
||---7---------7--7--0--7-------(7)--7--7-----0--7--7S==|
||---7---------7--7--0--7-------(7)--7--7-----0--7--7S==|
||o--5---------5--5--0--5-------(5)--5--5-----0--5--5S==|
||------------------------------------------------------|
|
|   Gtr III
|    S   S  S  S  S  S  S    S   S   S  S  S  S  S  S S
||---3---2--2--2--2----------2---2---2--2--------2--2---|
||o--3---3--3--3--3--0--0----3---3---3--3--0--0--3--3-0-|
||---0---2--2--2--2--0--0----2---2---2--2--0--0--2--2-0-|
||---0---0--0--0--0--0--0----0---0---0--0--0--0--0--0-0-|
||o-----------------------------------------------------|
||------------------------------------------------------|


  C                 G5        G/B     Cadd2
                     ~~~~~~~        ~~
   S   S  S  S  S S  E  +E    S  S  Q       3x
|-13--12------------------------------------||
|--------13--------------------------------o||
|-----------12-10s9-------------------------||
|-----------------------------9s10-12-------||
|-------------------10-(10)----------------o||
|-------------------------------------------||
|
|                                   ~~
|  E.        S  S S  E  +S  S S  S  E S S   3x
|-------------------------------------------||
|--5---------5--5-0------------------------o||
|--5---------5--5-0-------------------------||
|--5---------5--5-0--5--(5)-5-----------0---||
|--3---------3--3----5--(5)-5-2s=3--2-3-0--o||
|--------------------3--(3)-3---------------||
|
|  S   S  S  S  S S  E  +S  S S  S  E E     3x
|--0---0--0--0--0----3--(3)-3-3-----3-3-----||
|--1---1--1--1--1----3--(3)-3-3-----3-3----o||
|--0---0--0--0--0-0--0--(0)-0-0-----0-0-----||
|--3---2--2--2--2-0--0--(0)-0-0-----0-2-----||
|--3---3--3--3--3-0-----------2h=3--2-3----o||
|--------------------3--(3)-3---------------||


  D
                                                 ~~~
   S  S  S  S  S  S  E       +S   S  S  S  S  S  E
|-15-14-------------14b15---(14)-14----------------|
|-------15--------------------------15-------------|
|----------14-12s11--------------------14-12s11----|
|-----------------------------------------------12-|
|--------------------------------------------------|
|--------------------------------------------------|
|
|  S  E     S  S  S  E       +S   S  E     S  S  E
|--------------------------------------------------|
|--7--7-----7--7--0--7-------(7)--7--7-----0--7--7S|
|--7--7-----7--7--0--7-------(7)--7--7-----0--7--7S|
|--7--7-----7--7--0--7-------(7)--7--7-----0--7--7S|
|--5--5-----5--5--0--5-------(5)--5--5-----0--5--5S|
|--------------------------------------------------|
|
|  S  S  S  S  S  S  S    S   S   S  S  E     S  E
|--3--2--2--2--2----------2---2---2--2--------2----|
|--3--3--3--3--3--0--0----3---3---3--3--0-----3----|
|--0--2--2--2--2--0--0----2---2---2--2--0-----2--0-|
|--0--0--0--0--0--0--0----0---0---0--0--0-----0--0-|
|--------------------------------------------------|
|--------------------------------------------------|


  C                G5
                    ~~~~~~~
   S  S  S  S  S S  E  +H
|-13-12-----------------------*|
|-------13--------------------*|
|----------12-10s9------------*|
|-----------------------------*|
|------------------10-(10)----*|
|-----------------------------*|
|
|  E     S  S  S S  E  +H
|-----------------------------*|
|--5-----5--5--5--------------*|
|--5-----5--5--5--------------*|
|--5-----5--5--5-0--5--(5)----*|
|--3-----3--3--3-0--5--(5)----*|
|-------------------3--(3)----*|
|
|  S  S  S  S  S S  E  +H
|--0--0--0--0--0----3--(3)----*|
|--1--1--1--1--1----3--(3)----*|
|--0--0--0--0--0-0--0--(0)----*|
|--3--2--2--2--2-0--0--(0)----*|
|--3--3--3--3--3-0------------*|
|-------------------3--(3)----*|


Duration Legend
---------------
W - whole; H - half; Q - quarter; E - 8th; S - 16th; T - 32nd; X - 64th; a - acciaccatura
+ - note tied to previous; . - note dotted; .. - note double dotted
Uncapitalized letters represent notes that are staccato (1/2 duration)
Irregular groupings are notated above the duration line
Duration letters will always appear directly above the note/fret number it represents the
duration for.  Duration letters with no fret number below them represent rests.  Multi-
bar rests are notated in the form Wxn, where n is the number of bars to rest for.  Low
melody durations appear below the staff

Tablature Legend
----------------
 h   - hammer-on
 p   - pull-off
 b   - bend
 pb  - pre-bend
 r   - bend release (if no number after the r, then release immediately)
 /\  - slide into or out of (from/to "nowhere")
 s   - legato slide
 S   - shift slide
  - natural harmonic
[n]  - artificial harmonic
n(n) - tapped harmonic
 ~   - vibrato
 tr  - trill
 T   - tap
 TP  - trem. picking
 PM  - palm muting
\n/  - tremolo bar dip; n = amount to dip
 \n  - tremolo bar down
 n/  - tremolo bar up
/n\  - tremolo bar inverted dip
 =   - hold bend; also acts as connecting device for hammers/pulls
 <>  - volume swell (louder/softer)
 x   - on rhythm slash represents muted slash
 o   - on rhythm slash represents single note slash

Misc Legend
-----------
 |  - bar
||  - double bar
||o - repeat start
o|| - repeat end
*|  - double bar (ending)
 :  - bar (freetime)
 $  - Segno
 &  - Coda
Tempo markers -  = BPM(8/16=s8/s16), where s8 = swing 8ths, s16 = swing 16ths


***************************************************************************************
* Generated using Power Tab Editor by Brad Larsen - http://powertab.guitarnetwork.org *
***************************************************************************************
comments
print report bad tab
9 comments total. Showing first comments.
0 reply
shadow51t wrote on March 1 2005, 12:00 am

good job. i havent played it yet, but it looks good. i like how you did the chorus, i think that is the most accurate on the net (from what i can tell). im gunna try it now

0 reply
Slash99 wrote on April 6 2005, 12:00 am

This is from the mag and people still give it a 4 star.
YOU GUYS WHO DO THAT ARE SO ***ING RETARDED.
Good job on tabing this out.
LOTS of RESPECT.
VR IS THE GREATEST BAND ON THE PLANET!!!!!!!!!!!!!!!!!!!!!!!!!!!!!!!!
!!!!!!!!!!!!!!!!!!!!!!!!!!!!!!!!!!!!!!!!!!!!!!!!!!!!!!!!!!!!!!!!!!!!!
!!!!!!!!!!!!!!!!!!!!!!!!!!!!!!!!!!!!!!!!!!!!!!!!!!!!!!!!!!!!!!!!!!!!!
!!!!!!!!!!!!!!!!!!!!!!!!!!!!!!!!!!!!!!!!!!!!!!!!!!!!!!!!!!!!!!!!!!!!!
!!!!!!!!!!!!!!!!!!!!!!!!!!!!!!!!!!!!!!!!!!!!!!!!!!!!!!!!!!!!!!!!!!!!!
!!!!!!!!!!!!!!!!!!!!!!!!!!!!!!!!!!!!!!!!!!!!!!!!!!!!!!!!!!!!!!!!!!!!!
!!!!!!!!!!!!!!!!!!!!!!!!!!!!!!!!!!!!!!!!!!!!!!!!!!!!!!!!!!!!!!!!!!!!!!!!!!!!!!!!!!!!!!!!!!!!!!!!!!!!!!!!!!!!!!!!!!!!!!!!!!!!!!!!!!!!!!!!!!!!!!!!!!!!!!!!!!!!!!!!!!!!!!!!!!!!!!!!!!!!!!!!!!!!!!!!!!!!!!!!!!!!!!!

0 reply
goober wrote on May 23 2005, 12:00 am

i agree!!!!!!!!!!!!!!!!!!!!!!!!!!

I want to post or [tab]
guest
You may want to rate the tab now too:
select rating
Please do not post tabs as comments. Select "correction" instead!