Oops, an error
Loading. Please wait.

Illegal I Song Tab

ver1
ver1

Intro

Whole song

Interactive

More versions @911Tabs.com
780 views 1 this week
no commentswrite comment
1 2 3 4 5
please rate
add to favorites launch autoscroll
font size
0
reset
Autoscroll
+/-
esc
set tempo
stop
Contributor
WARNING: You are trying to view
                                    content from Ultimate-Guitar.com
                                    in an unauthorized application,
                                    which is prohibited.

                                    Please use an official Ultimate
                                    Guitar Tabs application for iPhone,
                                    iPad or Android to access legitimate
                                    chords, guitar, bass, and drum tabs
                                    from Ultimate-Guitar.com database.

                                    Type "ultimate guitar tabs" in Apple
                                    App Store's or Android Market's
                                    search to find the application.
-------------------------------------------------------------------------------
                             "Illegal i Song" --- Velvet Revolver
-------------------------------------------------------------------------------


Tabbed by: [travis]



Tuning: Standard Tuning (E A D G B E) [low to high]


Legend: 

... = palm mute
h = hammer on
p = pull off
b = bend
pb = pre bend
1 = whole step bend
1.5 = whole step and a half bend
2 = 2 steps bend
.5 = half step bend
/ = slide up
\ = slide down
h/ = pick once
p\ = pick once
h/p\ = pick once
* = pinch harmonic
~ = vibrato
() = bent note brought back to normal / note not picked
__ = hold bend
! = tremelo pick
" = harmonic
w = whammy bar
-1 = push whammy bar down 1 whole step


=====================================
Intro: Play this twice in all.

Guitar 1:
e|-|-----------------------------------------------------------------------------------------|
B|o|-----------------------------------------------------------------------------------------|
G|-|-----------------------------------------------------------------------------------------|
D|-|4-4-4-2--2--5-4~~-4~~(4)/7--5--4-4-4-2--4--5-4~~-4~~(4)/10\5--4-4-4-2--4--5-4~~-4-4/7--5-|
A|o|-----------------------------------------------------------------------------------------|
E|-|-----------------------------------------------------------------------------------------|

Guitar 2:
e|-|------------------------------------------------------------------------------------------------|
B|o|------------------------------------------------------------------------------------------------|
G|-|------------------------------------------------------------------------------------------------|
D|-|------------------------------------------------------------------------------------------------|
A|o|--------------------------------------------------------3-3-------------------------------------|
E|-|2-2-2-2-0-2-3-2~~~-2--2-5-5-3-3-2-2-2-2-0-2-3-2~~~-2--2-----3-3-2-2-2-2-0-2-3-2~~~-2--2-5-5-3-3-|


======================================
Guitar 1:
e|---------------------|-|
B|---------------------|o|
G|---------------------|-|
D|-4-4-4-2--4--5-4~~~~~|-|
A|---------------------|o|
E|---------------------|-|

Guitar 2:
e|---------------------|-|
B|---------------------|o|
G|---------------------|-|
D|---------------------|-|
A|---------------------|o|
E|-2-2-2-2-0-2-3-2~~~~~|-|



=======================================
**This is played when Guitars 1 and 2 play the intro on the second time (|o|--|o|). **

Synthesizer:
e|----------------------------------------------------------------------------------|
B|----------------------------------------------------------------------------------|
G|----------------------------------------------------------------------------------|
D|-16~~~~~~~----14----14------16~~~~~~--14~~~~~---16~~~~---14---14--16~~~~~--14--14-|
A|----------------------------------------------------------------------------------|
E|----------------------------------------------------------------------------------|

========================================
Verse 1:
Verse 2: Second Time (After First Chorus)


Guitar 1:
                                                                                1____
e|-----------------------------------------------------------------------------------|
B|-----------------------------------------------------------------------------------|
G|-----------------------------------------------------------------------------------|
D|-----4-------------------4-------------------4-----------------4-------------------|
A|----------------------------------------------------------------------------/7b~~~~|
E|-2-2---0-2-2-3-2-----2-2---0-2-2-3-2-----2-2---0-2-2-3-2---2-2---0-2-2-3-2---------|
   ...   .........     ...   .........     ...   .........   ...   .........


Guitar 2:
e|---------------------------------------------------------------------------|
B|---------------------------------------------------------------------------|
G|---------------------------------------------------------------------------|
D|---------------------------------------------------------------------------|
A|---------------------------------------------------------------------------|
E|-2-2-2-2-0-2-3-2-----2-2-2-2-0-2-3-2-----2-2-2-2-0-2-3-2---2-2-2-2-0-2-3-2-|
   ...............     ...............     ...............   ...............

==========================================
Guitar 1:
e|-----------------------------------------------------------------|
B|-----------------------------------------------------------------|
G|-----------------------------------------------------------------|
D|-----4-------------------------------4---------------------------|
A|-----------------------------------------------------------------|
E|-2-2---0-2-2-3-2-----------------2-2---0-2-2-3-2-----------------|
   ...   .........                 ...   .........   

Guitar 4:
e|-----------------------------------------------------------------|
B|-----------------------------------------------------------------|
G|-----------------------------------------------------------------|
D|-----------------------------------------------------------------|
A|-----------------------------------------------------------------|
E|-------------------2-2-2-2-2-2-0-------------------2-2-2-2-2-2-2-|

Guitar 2:
e|--------------------------------------|
B|--------------------------------------|
G|--------------------------------------|
D|--------------------------------------|
A|--------------------------------------|
E|-2-2-2-2-0-2-3-2-----2-2-2-2-0-2-3-2--|
   ...............     ...............  


============================================
Guitar 1:
                                                     1_____
e|---------------------------------------------------------|
B|---------------------------------------------------------|
G|---------------------------------------------------------|
D|-----4-------------------------------4-----------/7b~~~~~|
A|---------------------------------------------------------|
E|-2-2---0-2-2-3-2-----------------2-2---0-2-2-3-2---------|
   ...   .........                 ...   .........

Guitar 3:
e|---------------------------------------------------------|
B|---------------------------------------------------------|
G|---------------------------------------------------------|
D|---------------------------------------------------------|
A|---------------------------------------------------------|
E|-------------------2-2-2-2-2-2-2-------------------------|


Guitar 2:
e|--------------------------------------|
B|--------------------------------------|
G|--------------------------------------|
D|--------------------------------------|
A|--------------------------------------|
E|-2-2-2-2-0-2-3-2-----2-2-2-2-0-2-3-2--|
   ...............     ...............  

End of Verse 1.
End of Verse 2 (2nd Time)
================================================
Pre Chorus 1:
Pre Chorus 2: (2nd Time)

Guitar 1:
e|------------------------------------------------------------------------------------------|
B|------------------------------------------------------------------------------------------|
G|------------------------------------------------------------------------------------------|
D|-4-4-4-2--2--5-4~~-4~~(4)/7--5--4-4-4-2--4--5-4~~-4~~(4)/10\5--4-4-4-2--4--5-4~~-4-4/7--5-|
A|------------------------------------------------------------------------------------------|
E|------------------------------------------------------------------------------------------|

Guitar 2:
e|-------------------------------------------------------------------------------------------------|
B|-------------------------------------------------------------------------------------------------|
G|-------------------------------------------------------------------------------------------------|
D|-------------------------------------------------------------------------------------------------|
A|---------------------------------------------------------3-3-------------------------------------|
E|-2-2-2-2-0-2-3-2~~~-2--2-5-5-3-3-2-2-2-2-0-2-3-2~~~-2--2-----3-3-2-2-2-2-0-2-3-2~~~-2--2-5-5-3-3-|


======================================
Guitar 1:
e|---------------------|
B|---------------------|
G|---------------------|
D|-4-4-4-2--4--5-4~~~~~|
A|---------------------|
E|---------------------|

Guitar 2:
e|---------------------|
B|---------------------|
G|---------------------|
D|---------------------|
A|---------------------|
E|-2-2-2-2-0-2-3-2~~~~~|

End of Pre Chorus 1.
End of Pre Chorus 2.


Go to Chorus 1 on First Time.

**Skip To Chorus 2 On Second Time.***
=======================================
Chorus 1:

Guitar 1:
e|------------------------------------------------------------------------|
B|------------------------------------------------------------------------|
G|-7-7-7-7-7-7-7-7-7-7-7-7\5-5-5-5-5/7-7-7-7-7-7-7-7-7-7-7-7/10-10-10-10\-|
D|-x-x-x-x-x-x-x-x-x-x-x-x-x-x-x-x-x-x-x-x-x-x-x-x-x-x-x-x-x--x--x--x--x--|
A|-5-5-5-5-5-5-5-5-5-5-5-5\3-3-3-3-3/5-5-5-5-5-5-5-5-5-5-5-5/-8--8--8--8\-|
E|------------------------------------------------------------------------|

Guitar 2:
e|-------------------------------------------------------------------|
B|-------------------------------------------------------------------|
G|-----------------------------------7-7-7-7-7-7-7-7-7-7-7-7-7-7-7-7-|
D|-8-8-8-8-8-8-8-8-8-8-8-8-8-8-8-8-8-7-7-7-7-7-7-7-7-7-7-7-7-7-7-7-7-|
A|-x-x-x-x-x-x-x-x-x-x-x-x-x-x-x-x-x-5-5-5-5-5-5-5-5-5-5-5-5-5-5-5-5-|
E|-6-6-6-6-6-6-6-6-6-6-6-6-6-6-6-6-6-5-5-5-5-5-5-5-5-5-5-5-5-5-5-5-5-|

========================================
Guitar 1:

e|-------------------------------------------------------------------------|
B|-------------------------------------------------------------------------|
G|-7-7-7-7-7-7-7-7-7-7-7-7\5-5-5-5/7-7-7-7-7-7-7-7-7-7-7-7\5-5-5-5/7-7-7-7-|
D|-x-x-x-x-x-x-x-x-x-x-x-x-x-x-x-x-x-x-x-x-x-x-x-x-x-x-x-x-x-x-x-x-x-x-x-x-|
A|-5-5-5-5-5-5-5-5-5-5-5-5\3-3-3-3/5-5-5-5-5-5-5-5-5-5-5-5\3-3-3-3/5-5-5-5-|
E|-------------------------------------------------------------------------|

Guitar 2:
e|-------------------------------------------------------------------------|
B|-------------------------------------------------------------------------|
G|-------------------------------------------------------------------------|
D|-5-5-5-5-5-5-5-5-5-5-5-5-5-5-5-5-5-5-5-5-5-5-5-5-5-5-5-3-3-3-3/8-8-8-8-8-|
A|-5-5-5-5-5-5-5-5-5-5-5-5-5-5-5-5-5-5-5-5-5-5-5-5-5-5-5-3-3-3-3/x-x-x-x-x-|
E|-3-3-3-3-3-3-3-3-3-3-3-3-3-3-3-3-3-3-3-3-3-3-3-3-3-3-3-1-1-1-1/6-6-6-6-6-|

=========================================
Guitar 1:
e|-----------------------------------------------------------------------|
B|-----------------------------------------------------------------------|
G|-7-7-7-7-7-7-7-7/10-10-10-10\7-7-7-7-7-7-7-7-7-7-7\5-5-5-5-5/7-7-7-7-7-|
D|-x-x-x-x-x-x-x-x--x--x--x--x-x-x-x-x-x-x-x-x-x-x-x-x-x-x-x-x-x-x-x-x-x-|
A|-5-5-5-5-5-5-5-5/-8--8--8--8\5-5-5-5-5-5-5-5-5-5-5\3-3-3-3-3/5-5-5-5-5-|
E|-----------------------------------------------------------------------|

Guitar 2:
e|-------------------------------------------------------------------|
B|-------------------------------------------------------------------|
G|-------------------------7-7-7-7-7-7-7-7-7-7-7-7-7-7-7-7-----------|
D|-8-8-8-8-8-8-8-8-8-8-8-8-7-7-7-7-7-7-7-7-7-7-7-7-7-7-7-7-5-5-5-5-5-|
A|-x-x-x-x-x-x-x-x-x-x-x-x-5-5-5-5-5-5-5-5-5-5-5-5-5-5-5-5-5-5-5-5-5-|
E|-6-6-6-6-6-6-6-6-6-6-6-6-5-5-5-5-5-5-5-5-5-5-5-5-5-5-5-5-3-3-3-3-3-|

=========================================
Guitar 1: Tremelo pick while going towards the pickups.
e|-----------------------------------------------------|
B|-----------------------------------------------------|
G|-7-7-7-7-7-7-7!/////////////////////////////////////-|
D|-x-x-x-x-x-x-x---------------------------------------|
A|-5-5-5-5-5-5-5!/////////////////////////////////////-|
E|-----------------------------------------------------|

Guitar 2:
e|-----------------------------------------------------|
B|-----------------------------------------------------|
G|-----------------------------------------------------|
D|-5-5-5-5-5-5-5-5-5-5-5-5-5-5-5-5-5-5-5-5-5-5-5-5-5-5-|
A|-5-5-5-5-5-5-5-5-5-5-5-5-5-5-5-5-5-5-5-5-5-5-5-5-5-5-|
E|-3-3-3-3-3-3-3-3-3-3-3-3-3-3-3-3-3-3-3-3-3-3-3-3-3-3-|



End of Chorus 1.


*****Go back to Verse 2 and play all the way to the end of Verse 2.*******
===========================================
Chorus 2: After Verse 2.

Guitar 1:
e|--------------------------------------------------------------------------|
B|--------------------------------------------------------------------------|
G|-7-7-7-7-7-7-7-7-7-7-7-7\5-5-5-5-5/7-7-7-7-7-7-7-7-7-7-7-7-7/10-10-10-10\-|
D|-x-x-x-x-x-x-x-x-x-x-x-x-x-x-x-x-x-x-x-x-x-x-x-x-x-x-x-x-x-x--x--x--x--x--|
A|-5-5-5-5-5-5-5-5-5-5-5-5\3-3-3-3-3/5-5-5-5-5-5-5-5-5-5-5-5-5/-8--8--8--8\-|
E|--------------------------------------------------------------------------|

Guitar 2:
e|-------------------------------------------------------------------|
B|-------------------------------------------------------------------|
G|-----------------------------------7-7-7-7-7-7-7-7-7-7-7-7-7-7-7-7-|
D|-8-8-8-8-8-8-8-8-8-8-8-8-8-8-8-8-8-7-7-7-7-7-7-7-7-7-7-7-7-7-7-7-7-|
A|-x-x-x-x-x-x-x-x-x-x-x-x-x-x-x-x-x-5-5-5-5-5-5-5-5-5-5-5-5-5-5-5-5-|
E|-6-6-6-6-6-6-6-6-6-6-6-6-6-6-6-6-6-5-5-5-5-5-5-5-5-5-5-5-5-5-5-5-5-|


============================================
Guitar 1:
e|------------------------------------------------------------------|
B|------------------------------------------------------------------|
G|-7-7-7-7-7-7-7-7-7-7-7-7\5-5-5-5/7-7-7-7-7-7-7-7-7-7-7-7/14-14-14-|
D|-x-x-x-x-x-x-x-x-x-x-x-x-x-x-x-x-x-x-x-x-x-x-x-x-x-x-x-x--x--x--x-|
A|-5-5-5-5-5-5-5-5-5-5-5-5\3-3-3-3/5-5-5-5-5-5-5-5-5-5-5-5/12-12-12-|
E|------------------------------------------------------------------|

Guitar 2:
e|---------------------------------------------------------------|
B|---------------------------------------------------------------|
G|---------------------------------------------------------------|
D|-5-5-5-5-5-5-5-5-5-5-5-5-5-5-5-5-5-5-5-5-5-5-5-5-5-5-5-3-3-3-3-|
A|-5-5-5-5-5-5-5-5-5-5-5-5-5-5-5-5-5-5-5-5-5-5-5-5-5-5-5-3-3-3-3-|
E|-3-3-3-3-3-3-3-3-3-3-3-3-3-3-3-3-3-3-3-3-3-3-3-3-3-3-3-1-1-1-1-|

=============================================
Guitar 1:
e|--------------------------------------------------------------------------------------------|
B|--------------------------------------------------------------------------------------------|
G|15-15-15-15-15-15-15-15-15-15-15-15-15/17-17-17-17\14-14-14-14-14-14-14-14-14-14-14/17-17-17|
D|-x--x--x--x--x--x--x--x--x--x--x--x--x--x--x--x--x--x--x--x--x--x--x--x--x--x--x--x--x--x--x|
A|13-13-13-13-13-13-13-13-13-13-13-13-13/15-15-15-15\12-12-12-12-12-12-12-12-12-12-12/15-15-15|
E|--------------------------------------------------------------------------------------------|

Guitar 2:
e|-------------------------------------------------------------------|
B|-------------------------------------------------------------------|
G|-------------------------7-7-7-7-7-7-7-7-7-7-7-7-7-7-7-7-----------|
D|-8-8-8-8-8-8-8-8-8-8-8-8-7-7-7-7-7-7-7-7-7-7-7-7-7-7-7-7-5-5-5-5-5-|
A|-x-x-x-x-x-x-x-x-x-x-x-x-5-5-5-5-5-5-5-5-5-5-5-5-5-5-5-5-5-5-5-5-5-|
E|-6-6-6-6-6-6-6-6-6-6-6-6-5-5-5-5-5-5-5-5-5-5-5-5-5-5-5-5-3-3-3-3-3-|

==============================================
Guitar 1: Tremelo pick the last octave all the way towards the pickups.
e|---------------------------------------------------------------------------|
B|---------------------------------------------------------------------------|
G|-17\12-12-12-12-12-12-12-12-12-12-12\10-10-10-10\7-7-7-7-7-7!//////////////|
D|---------------------------------------------------------------------------|
A|-15\10-10-10-10-10-10-10-10-10-10-10\-8--8--8--8\5-5-5-5-5-5!//////////////|
E|---------------------------------------------------------------------------|

Guitar 2:
e|-----------------------------------------------------|
B|-----------------------------------------------------|
G|-----------------------------------------------------|
D|-5-5-5-5-5-5-5-5-5-5-5-5-5-5-5-5-5-5-5-5-5-5-5-5-5-5-|
A|-5-5-5-5-5-5-5-5-5-5-5-5-5-5-5-5-5-5-5-5-5-5-5-5-5-5-|
E|-3-3-3-3-3-3-3-3-3-3-3-3-3-3-3-3-3-3-3-3-3-3-3-3-3-3-|

End of Chorus 2.
===============================================
Guitar Solo 1:

Guitar 1:
     2__________               1___              1__________       1.5_______________  1.5___
e|-----------------------------------------------------------------------------------------------|
B|-----------------------------------------------------------------------------------------------|
G|-----------------------------------------------------------------------------------------------|
D|-16b~~~~~~~~~(16)-16~~~~14h16b--(16)~~~14h16p14b~~~~14~~~(14)-11-11b~~~~~~~~11~~~~~(11)b--(11)-|
A|-----------------------------------------------------------------------------------------------|
E|-----------------------------------------------------------------------------------------------|

Guitar 2:
e|-----------------------------------------------------------------|
B|-----------------------------------------------------------------|
G|-----------------------------------------------------------------|
D|-----4-------------------------------4---------------------------| ---------------------- 
A|-----------------------------------------------------------------|                      |
E|-2-2---0-2-2-3-2-----------------2-2---0-2-2-3-2-----------------|                      |    
   ...   .........                 ...   .........                                        |
                                                                                          |
                                                                                          |Play both



Guitar 2:                                                                                 |over solo.
                                                                                1____     |
e|-----------------------------------------------------------------------------------|    |
B|-----------------------------------------------------------------------------------|    |
G|-----------------------------------------------------------------------------------| ---|
D|-----4-------------------4-------------------4-----------------4-------------------|
A|----------------------------------------------------------------------------/7b~~~~|
E|-2-2---0-2-2-3-2-----2-2---0-2-2-3-2-----2-2---0-2-2-3-2---2-2---0-2-2-3-2---------|
   ...   .........     ...   .........     ...   .........   ...   .........


Guitar 3:
e|--------------------------------------|
B|--------------------------------------|
G|--------------------------------------|
D|--------------------------------------| x2
A|--------------------------------------|
E|-2-2-2-2-0-2-3-2-----2-2-2-2-0-2-3-2--|
   ...............     ...............  

=========================================================
Guitar 1:
         1___________       2_____________           1____              1_______    1___           
e|------------------------------------------------------------------------------------------|
B|------------------------------------------------------------------------------------------|
G|------------------------------------------------------------------------------------------|
D|-9h10p9b~~~~~~~~~~~9\---------------------------------------------------------x-----------|
A|-------------------9\---------------------------------------------------------x-----------|
E|-----------------------/14b~~~~~~~~~~~~~(14)--12h14b---(14)---12h14-12b~~~~~~~--12b--(12)-|

Guitar 1 continued:
    1.5__________-1____-1___           1_____________________________
e|----------------------------------------------------------------------|
B|----------------------------------------------------------------------|
G|----------------------------------------------------------------------|
D|----------------------------------------------------------------------|
A|----------------------------------------------------------------------|
E|-9-9b~~~~~~~~(9)w--(9)w---(9)--7h9--7b~~~~~~~~~~~~~~~~~~~~~~~~~~~~~(7)|


Guitar 1:
e|------------------------------------------------------------------------------------------|
B|------------------------------------------------------------------------------------------|
G|------------------------------------------------------------------------------------------|
D|-4-4-4-2--2--5-4~~-4~~(4)/7--5--4-4-4-2--4--5-4~~-4~~(4)/10\5--4-4-4-2--4--5-4~~-4-4/7--5-|
A|------------------------------------------------------------------------------------------|
E|------------------------------------------------------------------------------------------|

Guitar 2:
e|-------------------------------------------------------------------------------------------------|
B|-------------------------------------------------------------------------------------------------|
G|-------------------------------------------------------------------------------------------------|
D|-------------------------------------------------------------------------------------------------|
A|---------------------------------------------------------3-3-------------------------------------|
E|-2-2-2-2-0-2-3-2~~~-2--2-5-5-3-3-2-2-2-2-0-2-3-2~~~-2--2-----3-3-2-2-2-2-0-2-3-2~~~-2--2-5-5-3-3-|

End of Guitar Solo.
==============================================================
Break:

Guitar 1:
e|---------------------------------------------------------------|
B|---------------------------------------------------------------|
G|---------------------------------------------------------------|
D|-4-4-4-2--4--5-4~~~4-4-4-4-4-4-4--4~~~~~~~~~~~~~~~~~~~~~~~~~~~~|
A|---------------------------------------------------------------|
E|---------------------------------------------------------------|

Guitar 2:
e|---------------------------------------------------------------|
B|---------------------------------------------------------------|
G|---------------------------------------------------------------|
D|---------------------------------------------------------------|
A|---------------------------------------------------------------|
E|-2-2-2-2-0-2-3-2~~~2-2-2-2-2-2-2--2~~~~~~~~~~~~~~~~~~~~~~~~~~~~|


For the next couple of seconds is a synthesizer, and then the 2nd guitar solo.
=============================================================
Guitar Solo 2:

Guitar 1: 
                 .5__                   
e|----------------------------------------------------------------------------------------|
B|----------------------------------------------------------------------------------------|
G|-9h11-11-11-9h11b--(11)~~~~9-11p9----9-9-9-9~~~~~~~~~9~~9~~~~9~~9~~~~9-9-9--------------|
D|----------------------------------11---------------------------------------9h11-11~~~~~~|
A|----------------------------------------------------------------------------------------|
E|----------------------------------------------------------------------------------------|

Guitar 1:
                                                                      1__
e|--------------------------------------------------------------------------------|
B|--------------------------------------------------------------------------------|
G|-----------------------------------------------------9h11-11-11-9h11b--(11)~~~~~|
D|-11~~~11~~11~~~~~~11------------------------------------------------------------|
A|---------------------14p13-14p13-\9-9~~~9---7~~~~~------------------------------|
E|------------------------------------------9-------------------------------------|

Guitar 1:
e|------------------------------------------------------------------------------------|
B|------------------------------------------------------------------------------------|
G|-9-11p9----9-9-9-9-9-9-9-9~~~~9~~9~~~~9-9-9-----------------------------------------|
D|--------11----------------------------------9h11-11-11-11-11-11-11~~~~~11~~11~~~~11-|
A|------------------------------------------------------------------------------------|
E|------------------------------------------------------------------------------------|

Guitar 1:
e|----------------------------------------------------|
B|----------------------------------------------------|
G|----------------------------------------------------|
D|----------------------------------------------------|
A|-14p13-14p13h14p13h14p13h14p13h14p13h14p13h14p13h14-|
E|----------------------------------------------------|

================================================================
Guitar 1:
                   .5__                                       .5
e|----------------------------------------------------------------------------------|
B|----------------------------------------------------------------------------------|
G|----------------------------------------------------------------------------------|
D|----------------------------------------------------------------------------------|
A|--------------------------------------------------7h9-9-9-7-9b--9~~~~9~~9-7-9p7---|
E|-12h14-14-14-12-14b--(14)-14~~~14~~14-12-14p12-\9-------------------------------9-|

Guitar 2: light palm mute.
e|-----------------------------------------------------------|
B|-----------------------------------------------------------|
G|-----------------------------------------------------------|
D|-----------------------------------------------------------|
A|-------------------------------------------------------3---|
E|-2-2-2-2-0-2-3-2~~~2--2-5-5-3-3-2-2-2-2-0-2-3-2~~~2--2---3-|
   .............     ..........................     ........

=================================================================
Guitar 1:
e|---------------------------------------------------------|
B|---------------------------------------------------------|
G|---------------------------------------------------------|
D|---------------------------------------------------------|
A|-7h9-9-9-7-9b--9~~~~9~~9-7-9p7---7-9-7-10-9-7-9-10-9-----|
E|-------------------------------9-------------------------|

Guitar 2:
e|------------------------------------------------------|
B|------------------------------------------------------|
G|------------------------------------------------------|
D|------------------------------------------------------|
A|------------------------------------------------------|
E|-2-2-2-2-0-2-3-2~~~2--2-5-5-3-3-3-2-0-3-2-0-2-3-2-----|
   .............     ..............................

End of Guitar Solo 2.
==================================================================
Chorus 3:

Guitar 1:
e|-----------------------------------------------------------------------|
B|-----------------------------------------------------------------------|
G|-7-7-7-7-7-7-7-7-7-7-7-7\5-5-5-5-5/7-7-7-7-7-7-7-7-7-7-7-7/10-10-10-10-|
D|-x-x-x-x-x-x-x-x-x-x-x-x-x-x-x-x-x-x-x-x-x-x-x-x-x-x-x-x-x--x--x--x--x-|
A|-5-5-5-5-5-5-5-5-5-5-5-5\3-3-3-3-3/5-5-5-5-5-5-5-5-5-5-5-5/-8--8--8--8-|
E|-----------------------------------------------------------------------|

Guitar 2:
e|-------------------------------------------------------------------|
B|-------------------------------------------------------------------|
G|-----------------------------------7-7-7-7-7-7-7-7-7-7-7-7-7-7-7-7-|
D|-8-8-8-8-8-8-8-8-8-8-8-8-8-8-8-8-8-7-7-7-7-7-7-7-7-7-7-7-7-7-7-7-7-|
A|-x-x-x-x-x-x-x-x-x-x-x-x-x-x-x-x-x-5-5-5-5-5-5-5-5-5-5-5-5-5-5-5-5-|
E|-6-6-6-6-6-6-6-6-6-6-6-6-6-6-6-6-6-5-5-5-5-5-5-5-5-5-5-5-5-5-5-5-5-|

====================================================================
Guitar 1:
e|---------------------------------------------------------------------|
B|---------------------------------------------------------------------|
G|-7-7-7-7-7-7-7-7-7-7-7-7\5-5-5-5/7-7-7-7-7-7-7-7-7-7-7-7/10-10-10-10-|
D|-x-x-x-x-x-x-x-x-x-x-x-x-x-x-x-x-x-x-x-x-x-x-x-x-x-x-x-x--x--x--x--x-|
A|-5-5-5-5-5-5-5-5-5-5-5-5\3-3-3-3/5-5-5-5-5-5-5-5-5-5-5-5/-8--8--8--8-|
E|---------------------------------------------------------------------|

Guitar 2:
e|---------------------------------------------------------------|
B|---------------------------------------------------------------|
G|---------------------------------------------------------------|
D|-5-5-5-5-5-5-5-5-5-5-5-5-5-5-5-5-5-5-5-5-5-5-5-5-5-5-5-3-3-3-3-|
A|-5-5-5-5-5-5-5-5-5-5-5-5-5-5-5-5-5-5-5-5-5-5-5-5-5-5-5-3-3-3-3-|
E|-3-3-3-3-3-3-3-3-3-3-3-3-3-3-3-3-3-3-3-3-3-3-3-3-3-3-3-1-1-1-1-|

=====================================================================
Guitar 1:
e|-----------------------------------------------------------------------|
B|-----------------------------------------------------------------------|
G|-7-7-7-7-7-7-7-7-7-7-7-7\5-5-5-5/7-7-7-7-7-7-7-7-7-7-7-7/10-10-10-10\7-|
D|-x-x-x-x-x-x-x-x-x-x-x-x-x-x-x-x-x-x-x-x-x-x-x-x-x-x-x-x--x--x--x--x-x-|
A|-5-5-5-5-5-5-5-5-5-5-5-5\3-3-3-3/5-5-5-5-5-5-5-5-5-5-5-5/-8--8--8--8\5-|
E|-----------------------------------------------------------------------|

Guitar 2:
e|-------------------------------------------------------------------|
B|-------------------------------------------------------------------|
G|-----------------------------------7-7-7-7-7-7-7-7-7-7-7-7-7-7-7-7-|
D|-8-8-8-8-8-8-8-8-8-8-8-8-8-8-8-8-8-7-7-7-7-7-7-7-7-7-7-7-7-7-7-7-7-|
A|-x-x-x-x-x-x-x-x-x-x-x-x-x-x-x-x-x-5-5-5-5-5-5-5-5-5-5-5-5-5-5-5-5-|
E|-6-6-6-6-6-6-6-6-6-6-6-6-6-6-6-6-6-5-5-5-5-5-5-5-5-5-5-5-5-5-5-5-5-|

======================================================================
Guitar 1:
e|----------------------------------------------------------------|
B|----------------------------------------------------------------|
G|-7-7-7-7-7-7-7-7-7-7-7\5-5-5-5/7-7-7-7-7-7-7-7-7-7-7-7/14-14-14-|
D|-x-x-x-x-x-x-x-x-x-x-x-x-x-x-x-x-x-x-x-x-x-x-x-x-x-x-x--x--x--x-|
A|-5-5-5-5-5-5-5-5-5-5-5\3-3-3-3/5-5-5-5-5-5-5-5-5-5-5-5/12-12-12-|
E|----------------------------------------------------------------|

Guitar 2:
e|---------------------------------------------------------------|
B|---------------------------------------------------------------|
G|---------------------------------------------------------------|
D|-5-5-5-5-5-5-5-5-5-5-5-5-5-5-5-5-5-5-5-5-5-5-5-5-5-5-5-3-3-3-3-|
A|-5-5-5-5-5-5-5-5-5-5-5-5-5-5-5-5-5-5-5-5-5-5-5-5-5-5-5-3-3-3-3-|
E|-3-3-3-3-3-3-3-3-3-3-3-3-3-3-3-3-3-3-3-3-3-3-3-3-3-3-3-1-1-1-1-|

======================================================================
Guitar 1:
e|--------------------------------------------------------------------------------------------------|
B|--------------------------------------------------------------------------------------------------|
G|15-15-15-15-15-15-15-15-15-15-15-15-15/17-17-17-17\14-14-14-14-14-14-14-14-14-14-14-14/17-17-17-17|
D|-x--x--x--x--x--x--x--x--x--x--x--x--x--x--x--x--x--x--x--x--x--x--x--x--x--x--x--x--x--x--x--x--x|
A|13-13-13-13-13-13-13-13-13-13-13-13-13/15-15-15-15\12-12-12-12-12-12-12-12-12-12-12-12/15-15-15-15|
E|--------------------------------------------------------------------------------------------------|

Guitar 2:
e|-------------------------------------------------------------------|
B|-------------------------------------------------------------------|
G|-----------------------------------7-7-7-7-7-7-7-7-7-7-7-7-7-7-7-7-|
D|-8-8-8-8-8-8-8-8-8-8-8-8-8-8-8-8-8-7-7-7-7-7-7-7-7-7-7-7-7-7-7-7-7-|
A|-x-x-x-x-x-x-x-x-x-x-x-x-x-x-x-x-x-5-5-5-5-5-5-5-5-5-5-5-5-5-5-5-5-|
E|-6-6-6-6-6-6-6-6-6-6-6-6-6-6-6-6-6-5-5-5-5-5-5-5-5-5-5-5-5-5-5-5-5-|

======================================================================
Guitar 1:
e|----------------------------------------------------------------------------------|
B|----------------------------------------------------------------------------------|
G|-12-12-12-12-12-12-12-12-12-12-12-12\10-10-10-10\7-7-7-7-7-7-7-7-7-7-7-7/14-14-14-|
D|--x--x--x--x--x--x--x--x--x--x--x--x--x--x--x--x-x-x-x-x-x-x-x-x-x-x-x-x--x--x--x-|
A|-10-10-10-10-10-10-10-10-10-10-10-10\-8--8--8--8\5-5-5-5-5-5-5-5-5-5-5-5/12-12-12-|
E|----------------------------------------------------------------------------------|

Guitar 2:
e|---------------------------------------------------------------|
B|---------------------------------------------------------------|
G|---------------------------------------------------------------|
D|-5-5-5-5-5-5-5-5-5-5-5-5-5-5-5-5-5-5-5-5-5-5-5-5-5-5-5-3-3-3-3-|
A|-5-5-5-5-5-5-5-5-5-5-5-5-5-5-5-5-5-5-5-5-5-5-5-5-5-5-5-3-3-3-3-|
E|-3-3-3-3-3-3-3-3-3-3-3-3-3-3-3-3-3-3-3-3-3-3-3-3-3-3-3-1-1-1-1-|

======================================================================
Guitar 1:
e|------------------------------------------------------------------------------------------------|
B|------------------------------------------------------------------------------------------------|
G|-15-15-15-15-15-15-15-15-15-15-15-15-15/17-17-17-17/19-19-19-19-19-19-19-19-19-19-19-19/22-22-22|
D|--x--x--x--x--x--x--x--x--x--x--x--x--x--x--x--x--x--x--x--x--x--x--x--x--x--x--x--x--x--x--x--x|
A|-13-13-13-13-13-13-13-13-13-13-13-13-13/15-15-15-15/17-17-17-17-17-17-17-17-17-17-17-17/20-20-20|
E|------------------------------------------------------------------------------------------------|

Guitar 2:
e|-------------------------------------------------------------------|
B|-------------------------------------------------------------------|
G|-------------------------7-7-7-7-7-7-7-7-7-7-7-7-7-7-7-7-----------|
D|-8-8-8-8-8-8-8-8-8-8-8-8-7-7-7-7-7-7-7-7-7-7-7-7-7-7-7-7-5-5-5-5-5-|
A|-x-x-x-x-x-x-x-x-x-x-x-x-5-5-5-5-5-5-5-5-5-5-5-5-5-5-5-5-5-5-5-5-5-|
E|-6-6-6-6-6-6-6-6-6-6-6-6-5-5-5-5-5-5-5-5-5-5-5-5-5-5-5-5-3-3-3-3-3-|


=======================================================================
Guitar 1: Tremelo pick while going towards the pickups.
e|-----------------------------------------------------------------|
B|-----------------------------------------------------------------|
G|-22\19-19-19-19-19-19-19-19-19-19-19-19!////////////////////////-|
D|--x--x--x--x--x--x--x--x--x--x--x--x--x--------------------------|
A|-20\17-17-17-17-17-17-17-17-17-17-17-17!////////////////////////-|
E|-----------------------------------------------------------------|

Guitar 2:
e|-----------------------------------------------------|
B|-----------------------------------------------------|
G|-----------------------------------------------------|
D|-5-5-5-5-5-5-5-5-5-5-5-5-5-5-5-5-5-5-5-5-5-5-5-5-5-5-|
A|-5-5-5-5-5-5-5-5-5-5-5-5-5-5-5-5-5-5-5-5-5-5-5-5-5-5-|
E|-3-3-3-3-3-3-3-3-3-3-3-3-3-3-3-3-3-3-3-3-3-3-3-3-3-3-|

=======================================================================
Guitar 1:
e|-|-----------------------------------------------------------------------------------------|
B|o|-----------------------------------------------------------------------------------------|
G|-|-----------------------------------------------------------------------------------------|
D|-|4-4-4-2--2--5-4~~-4~~(4)/7--5--4-4-4-2--4--5-4~~-4~~(4)/10\5--4-4-4-2--4--5-4~~-4-4/7--5-|
A|o|-----------------------------------------------------------------------------------------|
E|-|-----------------------------------------------------------------------------------------|

Guitar 2:
e|-|------------------------------------------------------------------------------------------------|
B|o|------------------------------------------------------------------------------------------------|
G|-|------------------------------------------------------------------------------------------------|
D|-|------------------------------------------------------------------------------------------------|
A|o|--------------------------------------------------------3-3-------------------------------------|
E|-|2-2-2-2-0-2-3-2~~~-2--2-5-5-3-3-2-2-2-2-0-2-3-2~~~-2--2-----3-3-2-2-2-2-0-2-3-2~~~-2--2-5-5-3-3-|


======================================
Guitar 1:
e|---------------------|-|
B|---------------------|o|
G|---------------------|-|
D|-4-4-4-2--4--5-4~~~~~|-|
A|---------------------|o|
E|---------------------|-|

Guitar 2:
e|---------------------|-|
B|---------------------|o|
G|---------------------|-|
D|---------------------|-|
A|---------------------|o|
E|-2-2-2-2-0-2-3-2~~~~~|-|


********
Guitar 3: Play this over Guitars 1 and 2:
                            1_________________                         1_______
e|----------------------------------------------------------------------------------|
B|----------------------------------------------------------------------------------|
G|----------------------------------------------------------------------------------|
D|--------------------14--14b~~~~~~~~~~~~14~~~(14)------14--14~~~~~(14)b~~~~~~~(14)-|
A|----------------------------------------------------------------------------------|
E|----------------------------------------------------------------------------------|

Guitar 3:
   1.5_______________            .5__    1___________                      1___
e|-------------------------------------------------------------------------------------------------|
B|-------------------------------------------------------------------------------------------------|
G|-------------------------------------------------------------------------------------------------|
D|-16b~~~~~~~~~~~~~~~(16)--14--14pb--(14)b~~~~~~~~~~~(14)~~~~~~~~~~~~14--12b---(12)--11~~~~~~~~~~~~|
A|-------------------------------------------------------------------------------------------------|
E|-------------------------------------------------------------------------------------------------|


Please Rate and Comment My Tab.
Thanks

[travis]
comments
We did not receive enough feedback on this tab! Please rate:
print report bad tab
1 2 3 4 5
I want to post or [tab]
guest
You may want to rate the tab now too:
select rating
Please do not post tabs as comments. Select "correction" instead!