Oops, an error
Loading. Please wait.

Libertad Tab

330 views 1 this week
no commentswrite comment
1 2 3 4 5
worth learning
x 1
Autoscroll
+/-
esc
set tempo
stop
Contributor
Difficulty
intermediate
Hey! There's an official Ultimate Guitar app which is ideal
for learning songs when you're away from computer. Get the app
WARNING: You are trying to view
                                    content from Ultimate-Guitar.com
                                    in an unauthorized application,
                                    which is prohibited.

                                    Please use an official Ultimate
                                    Guitar Tabs application for iPhone,
                                    iPad or Android to access legitimate
                                    chords, guitar, bass, and drum tabs
                                    from Ultimate-Guitar.com database.

                                    Type "ultimate guitar tabs" in Apple
                                    App Store's or Android Market's
                                    search to find the application.
==============================================================================
           All the Guitar Solos from "Libertad", by Velvet Revolver.
==============================================================================
Compilation of all guitar solos in "Libertad", album from Velvet Revolver.

Words by Scott Weiland, Slash, Duff McKagan, Matt Sorum and Dave Kushner, except "Can't 
It Out of My Head"
by Jeff Lynne and Psycho Killer by David Byrne, Chris Frantz and Tina Weymouth. 
Solos by Saul Hudson.
RCA Records.

By Sebastián Ara.
MSN: playing.the.angel_@hotmail.com
Buenos Aires, Argentina

===============================================================================
TABLE OF CONTENTS:

1# "Let It Roll" – 2:32
2# "She Mine" – 3:25
3# "Get Out the Door" – 3:14
4# "She Builds Quick Machines" – 4:04
5# "The Last Fight" – 4:03
6# "Pills, Demons & Etc." – 2:54
7# "American Man" – 3:56
8# "Mary Mary" – 4:33
9# "Just Sixteen" – 3:59
10# "Can't Get It Out of My Head" (Electric Light Orchestra cover) – 3:58
11# "For a Brother" – 3:26
12# "Spay" – 3:06
13# "Gravedancer" – 8:42
?# "Bonus track"
===============================================================================

1) "Let It Roll" Guitar Solo
  e|---------------------------------------|
  B|---------------------------------------|
  G|-5--5--5--5--7fb-7~~-7-7-7-7--9fb------|
  D|---------------------------------------|
  A|---------------------------------------|
  E|---------------------------------------|


  |---------------------------|
  |-16---15---14---13---12----|
  |-18fb-17fb-16fb-15fb-14fb--|
  |---------------------------|
  |---------------------------|
  |---------------------------|


  |-------------------------------------------------|
  |-----5--------5--------5-8---3h5p3---------------|
  |-7fb---4--7fb---4--7fb-----7-------5-7---5-7~~---|
  |---------------------------------------7---------|
  |-------------------------------------------------|
  |-------------------------------------------------|


  |---------------------------------------------------|
  |---------7-----------------------------------------|
  |-9\7---7---9-7---7-----7---------------------------|
  |-----9---------9---7-9---9-7-9-7--5-7-5~~\\--------|
  |---------------------------------------------------|
  |---------------------------------------------------|


  |------------------------------------------------------|
  |------------------------------------------------------|
  |------------------------------------------------------|
  |-7fb~~~--9p7------/7--7p5-----5-------5p2-----3-------|
  |-------------10p7---------7-----7-5-------5-2---5-3---|
  |----------------------------7-------7---------------5-|


  |-----------------------------------------------10-7-10-----------17b~~~-|
  |------------------------------------10----10fb---------/17-15-17--------|
  |---------------------7---7/9-7-9/12----12-------------------------------|
  |-2/5--5---5-2p0---/9---9------------------------------------------------|
  |--------7---------------------------------------------------------------|
  |------------------------------------------------------------------------|


2) "She Mine" Guitar Solo

e|-------12-------12-------12-------12-------12-------12-------12-------12-|
B|----------15-------15-------15-------15-------15-------15-------15-------|
G|-12-14-------14-------14-------14-------14-------14-------14-------14----|
D|-------------------------------------------------------------------------|
A|-------------------------------------------------------------------------|
D|-------------------------------------------------------------------------|

e|----------------------------------------------|
B|----------------13----------------13----------|
G|-------12-14-15----------12-14-15----------12-|
D|-14-15-------------14-15-------------14-15----|
A|----------------------------------------------|
D|----------------------------------------------|

Here:
e|------------------------5-7b-7-8b-8-5-7-5b-5----------------|
B|----------------------5----------------------8--------------|
G|-7b-7b-8b-8b-5b-8b-7b--------------------------7b-7b-7b-7p5-|
D|------------------------------------------------------------|
A|------------------------------------------------------------|
D|------------------------------------------------------------|

Then:
e|-------------------------------------|
B|-------------------------------------|
G|-------------------------------------|
D|-7p5-7p5-----------------------------|
A|---------7p5-7p5-3p0-3h5p3p0---------|
D|-----------------------------3h5p3p0-|


3) "Get out the door"

|------------------------------------|
|-12-------9------12------12---------|
|-14b16~--11b13~--14b16~--13b14~r13--|
|------------------------------------|
|------------------------------------|
|------------------------------------|

|----------------------------------------------------------|
|---15--15-15-15\-12-12--12-12-12\-10-10-10\-9-9-9\-7-7-7--|
|-x-16--16-16-16\-13-13--13-13-13\-11-11-11\-9-9-9\-7-7-7--|
|-x--------------------------------------------------------|
|----------------------------------------------------------|
|----------------------------------------------------------|

Now:
|-------------------------------------------------|
|------15-17b18.5~--17b19-r17p15-----------15b19--|
|-(16)---------------------------16-16--16--------|
|-------------------------------------------------|
|-------------------------------------------------|
|-------------------------------------------------|

|---------------------------------------------|
|-19b22-r19--17b19r-18-18-18-17p15-17-15------|
|----------------------------------------16\--|
|---------------------------------------------|
|---------------------------------------------|
|---------------------------------------------|


4) "She Builds Quick Machines" Guitar Solo

E--------------------------------------------8-------------8--------|
B---8-8~br-p-6--8-8~br-p-6--8-8~br-p-6--6-8b---8p6-6h8--8b---8p6-6--|
G-------------7-----------7-----------7-----------------------------|
D-------------------------------------------------------------------|
A-------------------------------------------------------------------|
E-------------------------------------------------------------------|

                                                   PM=======
E---------------------------------------------------------------------|
B--8-6-5h-6p-5---6-5h-6p-5--------------------------------------------|
G--------------7-----------7p-5h 7------------------------------------|
D----------------------------------5h-7p-5----------3brp--0--3brp--0--|
A------------------------------------------5h-7-5---------------------|
E---------------------------------------------------------------------|

E---------------------------------------------------------------------|
B---------------------------------------------------------------------|
G---------------------------------------------------------------------|
D--3brp--0--3brp--0-3brp--0--3brp--0---3--5br-3~~--5b--3-X------------|
A--------5--------5-------5--------5--------------------h5------------|
E---------------------------------------------------------------------|


E--------------------------------------------------------------------|
B-----------------------------------------------------12b-10---------|
G-----------------------------------------------------12b-10---------|
D-5b-3-X--5b--3-X--3/5-h-7p-5-5/7h-9p-7-7/-10h-12p-10------10h-12-10-|
A-----h5------h5-----------------------------------------------------|
E--------------------------------------------------------------------|


E----10h-13p-10-----------------------13b^--10----------------------|
B-13b^----------13p-10h--12p-10------------------13p-10--13b^-13b^--|
G--------------------------------12-10------------------------------|
D-------------------------------------------------------------------|
A-------------------------------------------------------------------|
E-------------------------------------------------------------------|


E-------------------------------15b^~~~~~-15^--15b^-15^-15b-15p-13--|
B-------------------------------------------------------------------|
G--10--12br-12-10h-12p-10-------------------------------------------|
D-------------------------12-10-------------------------------------|
A-------------------------------------------------------------------|
E-------------------------------------------------------------------|

E--15--17b^~~~--17b-17b^15-17b^-15----------------------------------|
B----------------------------------17~~~~~~~~~----------------------|
G-------------------------------------------------------------------|
D-------------------------------------------------------------------|
A-------------------------------------------------------------------|
E-------------------------------------------------------------------|


5) "The Last Fight" Guitar Solo

|-----------------------------------------------------------|
|-------------------------------------------10-10-----------|
|---------------7---9b10-9-7---7h9-9b11~----------9pb11r9-7~|
|-----7---7-7h9---9----------9------------------------------|
|-7h9---9---------------------------------------------------|
|-----------------------------------------------------------|

|--------------------------------------------------------------|
|--------------------------------------------7-8-9-10----------|
|-9pb11r9p7-9~---7---7h9p7---7~---9-7-9b11~-----------9b10-9-7~|
|------------------9-------9-----------------------------------|
|--------------------------------------------------------------|
|--------------------------------------------------------------|

|------10p8~-----------------------17b19~----|
|----8------------8S==15~~------15-----------|
|-/9------------9-----------/16--------------|
|--------------------------------------------|
|--------------------------------------------|
|--------------------------------------------|

|17pb19r17-16-15---------17--------------------|
|----------------17-15------17b19-17b19-17b19~-|
|----------------------16----------------------|
|----------------------------------------------|
|----------------------------------------------|
|----------------------------------------------|

|--------------------------------------------------|
|-15-17----15~------15-17b19~---17b19-17-15----15~-|
|-------16------/16-------------------------16-----|
|--------------------------------------------------|
|--------------------------------------------------|
|--------------------------------------------------|

6) "Pills, Demons, & Etc..." Chords

Still working on that solo, but here are the chords:

Verses:
e|---------------------------|
B|---------------------------|
G|-------5----------------5--|
D|-7--5--5--5--7-5--7--5--5--|
A|-7--5--3--5--7-5--7--5--3--|
E|-5--3-----3--5-3--5--3-----|

Chorus:
e|---------------------------------|
B|---------------------------------|
G|------------5-5-0----------------|
D|-3--3--3-3--5-5-0-5--5--5-5--7-7-|
A|-3--3--3-3--3-3-0-5--5--5-5--7-7-|
E|-1--1--1-1--------3--3--3-3--5-5-|

Lead 2:
e|-17----17----17----17----|
B|----15----15----15----15-|
G|-------------------------|
D|-------------------------|
A|-------------------------|
E|-------------------------|

Solo Chords:
e|-----------------|
B|-----------------|
G|-------5---------|
D|-7--5--5--5--7-5-|
A|-7--5--3--5--7-5-|
E|-5--3-----3--5-3-|

7) "American Man" Guitar Solo

Break 1:
E--------------------------------------------------------------|
B--------------------------------------------------------------|
G--------------------------------------------------------------|
D--------------------------------------------------------------|
A--------6h-7h-9-----10~~--9--7~~--6~~----9~~-------9---9------|
E---s7~~-----------7-------------------7----------7---7--------|

E-------------------------------------------------------------------------------|
B---------------------------------------------------------7--10--7--10--12~~----|
G-----------------------------------------------7-----9--7----------------------|
D------------------------------------------7--9---9--7--------------------------|
A-6--7--9-----10b^--9p7---9s7--6----9--9s---------------------------------------|
E----------7---------------------7----------------------------------------------|

Solo:
E-----------12^fb---14FB^^^^^^14BRv-12~~~-12-12---|
B-----12-12---------------------------------------|
G--11---------------------------------------------|
D-------------------------------------------------|
A-------------------------------------------------|
E-------------------------------------------------|

E-11^HBR-11---14---15-14H-15P-12~~-12^fb-12-11h12-|
B-----------12------------------------------------|
G----------------11-------------------------------|
D-------------------------------------------------|
A-------------------------------------------------|
E-------------------------------------------------|

E--11^HBR-14--14---15^FB-15~~~-15-15-14-14-14-12----|
B------12---12--------------------------------------|
G---------------------------------------------------|
D---------------------------------------------------|
A---------------------------------------------------|
E---------------------------------------------------|

E-12-11H-12-14----------19-19~~-20-19-19--17h-19--|
B--------------12--12-----------------------------|
G-------------------------------------------------|
D-------------------------------------------------|
A-------------------------------------------------|
E-------------------------------------------------|

E-P17-17------------------------------------------|
B--------20--17h-20p-17--17-----------------------|
G---------------------------17h-19p-17------------|
D--------------------------------------19//21-----|
A-------------------------------------------------|
E-------------------------------------------------|

8) "Mary Mary"
(Not ready yet, will upload it later)

9) "Just 16"
 |-7-7-----7-7------10-x-10-----7---------------------------|
 |-7-7-----7-7------10-x-10-----7-9br-7-9-9br-7-9-9br-7-9---|
 |-----8/9------8/9---------8/9---9br-7-9-9br-7-9-9br-7-9---|
 |--------------------------------------------------------9-|
 |----------------------------------------------------------|
 |----------------------------------------------------------|


 |------------------------------------------7--------------------|
 |------------------------4-4-----------4---7------------4-------|
 |----------------7p4-7p4-----6p4h6---4-6fb---pb6r-4-6p4---4h6-4-|
 |----------4-4-7-------------------6----------------------------|
 |-2~~-5-6---6---------------------------------------------------|
 |---------------------------------------------------------------|


 |------3----3-------3----------------------------------------------|
 |----3------3---6fb---6p3---3p1----------3-3---3-3---3-3-----------|
 |-5b-----5b---------------5-----3-3qb----3-3---3-3---3-3-----------|
 |-------------------------------------5------5-----5-----5-3---3-5-|
 |------------------------------------------------------------5-----|
 |------------------------------------------------------------------|


 |-----3--------------------3----------|
 |-----3-pb6rp3h6-6---3-----3-6p3---3--|
 |-5fb--------------5----5fb------5----|
 |-------------------------------------|
 |-------------------------------------|
 |-------------------------------------|

 |-5h7h9p5h7h9p5-9h11p9h11h12p9-11h12h14p11h12h14----/14-13b(14)-|
 |------------------------------------------------14-------------|
 |---------------------------------------------------------------|
 |---------------------------------------------------------------|
 |---------------------------------------------------------------|
 |---------------------------------------------------------------|


10) "Can't Get It out of my Head" Guitar Solo

e|--------------------|------------------------|-----------------------------------|
B|--------------------|-8-10-10~---8p7---------|---------8-10----------------------|
G|-11~~---11~~---9-11-|---------------7--------|-7---9b11----b11-9-9p7--9---7~--7/-|
D|--------------------|----------------7---7h9-|---9------------------9---9--------|
A|--------------------|------------------------|-----------------------------------|
E|--------------------|------------------------|-----------------------------------|

e|-10-------10~~---10~~--10~\-|-13-10-12--13-10-----10--13b15r13~--10-------|
B|----13b15-------------------|----------------12-10--10--------------12p10-|
G|----------------------------|---------------------------------------------|
D|----------------------------|---------------------------------------------|
A|----------------------------|---------------------------------------------|
E|----------------------------|---------------------------------------------|

e|-10--13p10--15b17--15p14-15p14-15/17--15h17-|-15-18b20---18-15h17-----------14h15p14-|
B|----------12--------------------------------|--------------------17b19-15~-----------|
G|--------------------------------------------|----------------------------------------|
D|--------------------------------------------|----------------------------------------|
A|--------------------------------------------|----------------------------------------|
E|--------------------------------------------|----------------------------------------|

e|-15p14-15b17~~-15p14-15-17-----------|
B|--------------------------17b19-15\--|
G|-------------------------------------|
D|-------------------------------------|
A|-------------------------------------|
E|-------------------------------------|

e|-15-------------------------------------------------|
B|-----18-17-18-15h18p15--15--15h18p15-18--15-15------|
G|----------------------17--17-----------17-----17p14-|
D|----------------------------------------------------|
A|----------------------------------------------------|
E|----------------------------------------------------|

e|------------------------------------------------------------|
B|-18b20-18~~-15h18p15-----------------------------------13~~-|
G|--------------------14h15p14-15-14h15p14\12-14-12-10h12-----|
D|------------------------------------------------------------|
A|------------------------------------------------------------|
E|------------------------------------------------------------|

11) "For A Brother"

Solo's not ready yet, but here's the Intro Riff meanwhile:

e------------------------------------------------------------------|
b------------------------------------------------------------------|
g---------------------------------------------4/6-6/4-2------------|
d---------------------------------------------x/x-x/x-2------------|
a-2-3-4-4-2-xxx-2-3-4-4-2-xxx-2-3-4-4-2-xxx-2-2/4-4/2-0------------|
e-0-1-2-2-0-xxx-0-1-2-2-0-xxx-0-1-2-2-0-xxx-0----------------------|


12) "Spay" Chords

INTRO:
G|---------------------------------------------------------------------------|
D|---------------------------------------------------------------------------|
A|---------------------------------------------------------------------------|
E|---6--6-5--5-5--5-5-5--5-5-5-5-------6--6-5--5-5--5-5-5--5-5-5-5-----------|

G|---------------------------------------------------------------------------|
D|---------------------------------------------------------------------------|
A|---------------------------------------------------------------------------|
E|---6--6-5--5-5--5-5-5--5-5-5-5-------6--6-5-let ring-----------------------|

Come in, guitar:
e|---------------------------------------------------------------------------|
B|----(12/15)(14)-----(12/15)(14)-----(12/15)(14)-----(9/12)(11)-------------|
G|-----12/15--14-------12/15--14-------12/15--14-------9/12--11--------------|
D|-----12/15--14-------12/15--14-------12/15--14-------9/12--11--------------|
A|---------------------------------------------------------------------------|
D|---------------------------------------------------------------------------|
(let last notes of each set ring out)

Verse: add some palm mutes in here and there to get the right sound

e|---------------------------------------------------------------------------|
B|---------------------------------------------------------------------------|
G|---------------------------------------------------------------------------|
D|---------------------------------------------------------------------------|
A|-----8--8-7---7-7--7-7-7--7-7-7-7------8--8-7---7-7--7-7-7--7-7-7-7--------|
D|-----8--8-7---7-7--7-7-7--7-7-7-7------8--8-7---7-7--7-7-7--7-7-7-7--------|

e|--------------------------------------------------------------------------||
B|--------------------------------------------------------------------------||
G|-------------------------------------------------------------------------0||
D|-------------------------------------------------------------------------0||
A|-----8--8-7---7-7--7-7-7--7-7-7-7------5--5-4---4-4--4-4-4--4-4-4-4-------||
D|-----8--8-7---7-7--7-7-7--7-7-7-7------5--5-4---4-4--4-4-4--4-4-4-4-------||

Chorus:

e|-----------------------------------------|
B|-----------------------------------------|
G|-----------------------------------------|
D|-----5--5--5-5-5-8-----------------------|
A|-----5--5--5-5-5-8-----------------------|
D|-----5--5--5-5-5-8---8-10-8-11-8-10-11---|    X3

e|-----------------------------------------|
B|-----------------------------------------|
G|-----------------------------------------|
D|-----3--3--3-3-3-6-----------------------|
A|-----3--3--3-3-3-6-----------------------|
D|-----3--3--3-3-3-6---6-8-6-9-6-8-9-------|   X1


e|-----------------------------------------|
B|-----------------------------------------|
G|-----------------------------------------|
D|-----5--5--5-5-5-8-----------------------|
A|-----5--5--5-5-5-8-----------------------|
D|-----5--5--5-5-5-8---8-10-8-11-8-10-11---|    X3

e|-----------------------------------------|
B|-----------------------------------------|
G|-----------------------------------------|
D|-----3--3--3-3-3-6-----------------------|
A|-----3--3--3-3-3-6-----------------------|
D|-----3--3--3-3-3-6-----------------------|

Bridge:

e|---------------------------------------------------------------------------|
B|----(12/15)-15--(14)-----(12/15)-15--(14)-----(12/15)-15--(14)-------------|
G|-----12/15----15-14-------12/15----15-14-------12/15----15-14--------------|
D|-----12/15-------14-------12/15-------14-------12/15-------14--------------|
A|---------------------------------------------------------------------------|
D|---------------------------------------------------------------------------|
(let last chord of each set ring out-2 single notes between chords played fast)

e|---------------------------------------------|
B|----(12/15)(14)------------------------------|
G|-----12/15--14-------------------------------|
D|-----12/15--14-------------------------------|
A|---------------------------------------------|
D|---------------------------------------------|

Verse 2: add some palm mutes in here and there to get the right sound

e|---------------------------------------------------------------------------|
B|---------------------------------------------------------------------------|
G|---------------------------------------------------------------------------|
D|---------------------------------------------------------------------------|
A|-----8--8-7---7-7--7-7-7--7-7-7-7------8--8-7---7-7--7-7-7--7-7-7-7--------|
D|-----8--8-7---7-7--7-7-7--7-7-7-7------8--8-7---7-7--7-7-7--7-7-7-7--------|

e|--------------------------------------------------------------------------||
B|--------------------------------------------------------------------------||
G|-------------------------------------------------------------------------0||
D|-------------------------------------------------------------------------0||
A|-----8--8-7---7-7--7-7-7--7-7-7-7------5--5-4---4-4--4-4-4--4-4-4-4-------||
D|-----8--8-7---7-7--7-7-7--7-7-7-7------5--5-4---4-4--4-4-4--4-4-4-4-------||

Chorus 2:

e|-----------------------------------------|
B|-----------------------------------------|
G|-----------------------------------------|
D|-----5--5--5-5-5-8-----------------------|
A|-----5--5--5-5-5-8-----------------------|
D|-----5--5--5-5-5-8---8-10-8-11-8-10-11---|    X3

e|-----------------------------------------|
B|-----------------------------------------|
G|-----------------------------------------|
D|-----3--3--3-3-3-6-----------------------|
A|-----3--3--3-3-3-6-----------------------|
D|-----3--3--3-3-3-6---6-8-6-9-6-8-9-------|   X1


e|-----------------------------------------|
B|-----------------------------------------|
G|-----------------------------------------|
D|-----5--5--5-5-5-8-----------------------|
A|-----5--5--5-5-5-8-----------------------|
D|-----5--5--5-5-5-8---8-10-8-11-8-10-11---|    X3


e|-----------------------------------------|
B|-----------------------------------------|
G|-----------------------------------------|
D|-----3--3--3-3-3-6-----------------------|
A|-----3--3--3-3-3-6-----------------------|
D|-----3--3--3-3-3-6---6-8-6-9-6-8-9-------|


CHORUS:
e|-----------------------------------------|
B|-----------------------------------------|
G|-----------------------------------------|
D|-----5--5--5-5-5-8-----------------------|
A|-----5--5--5-5-5-8-----------------------|
D|-----5--5--5-5-5-8---8-10-8-11-8-10-11---|    X3

e|-----------------------------------------|
B|-----------------------------------------|
G|-----------------------------------------|
D|-----3--3--3-3-3-6-----------------------|
A|-----3--3--3-3-3-6-----------------------|
D|-----3--3--3-3-3-6---6-8-6-9-6-8-9-------|   X1


e|-----------------------------------------|
B|-----------------------------------------|
G|-----------------------------------------|
D|-----5--5--5-5-5-8-----------------------|
A|-----5--5--5-5-5-8-----------------------|
D|-----5--5--5-5-5-8---8-10-8-11-8-10-11---|    X3

e|-----------------------------------------|
B|-----------------------------------------|
G|-----------------------------------------|
D|-----3--3--3-3-3-6-----------------------|
A|-----3--3--3-3-3-6-----------------------|

13) "Gravedancer"'s Solo

Final Solo:
e|--------------------|---------------------------|---------------------------|
B|--------------------|---------------------------|---------------------------|
G|--------------------|-3qb--0--------------------|---------------------------|
D|-3h5-5-5~~------3---|---------5--3--------------|-3PH-3h5-5~--3-3h5------3--|
A|------------------5-|---------------3-3--3h5-5--|---------------------------|
E|--------------------|---------------------------|---------------------3-----|


e|------------------------------|-------------------------------|
B|------------------------------|-3------------6----------------|
G|-------3----3h5-5b6r5-3---5---|-3----5-3-5b7---b7r5p3--5~-3h5-|
D|-5-------5--------------5---5-|-------------------------------|
A|------------------------------|-------------------------------|
E|----3-------------------------|-------------------------------|


e|-------------------------------------|------------------------|
B|-----3-------------------------------|-----------6-6-6--6-6-5-|
G|-5b6---b6r5-3-5--3-----3-3-2-2-----0-|-5h7--------------------|
D|-------------------5-----------0-0---|-----5--5---------------|
A|-------------------------------------|------------------------|
E|-------------------------------------|------------------------|

e|---------------------------3----3------3----3-|-------3------3----3-------|
B|-6b8--6-3----------------3---6b8-----3---6b8--|-6b8~~--6b8----6b8---------|
G|----------6-5-5~-3p0--5b7---------5b7---------|---------------------3qb---|
D|----------------------------------------------|-------------------------5-|
A|----------------------------------------------|---------------------------|
E|----------------------------------------------|---------------------------|

(3:55)
e|---------3---------------------------|---------------------------------------|
B|----------6p3----------6---6---------|-----8--8-8-----11p8-8-8--11p8-8-8\6---|
G|-6p5p3h5-----5p3h5--/7---7---5\3--3--|-5b7---------10----------------------7-|
D|--------------------------------5--5-|---------------------------------------|
A|-------------------------------------|---------------------------------------|
E|-------------------------------------|---------------------------------------|


e|------13-----------------11b13--11----------------|
B|-13b15---11-13~-11-13p11----------13-11h13p11--13-|
G|---------------------------------------------12---|
D|--------------------------------------------------|
A|--------------------------------------------------|
E|--------------------------------------------------|

e|------------------------------------|
B|-11b12------------------------------|
G|------12-12~----12-12---12-12\---12-|
D|--------------14------14-------14---|
A|------------------------------------|
E|------------------------------------|

e|-----------------------------------------------------------|
B|-----------------------------------------------------------|
G|-14p12---15p14-14p12-15p14-14p12-15p14-14p12-15p14-14p12---|
D|------14------------------------------------------------14-|
A|-----------------------------------------------------------|
E|-----------------------------------------------------------|

e|----------------------------------13-13-------13-------|
B|------15----13p11-b14r13p11--13b15------13b15---13b15--|
G|-12-----15~--------------------------------------------|
D|-------------------------------------------------------|
A|-------------------------------------------------------|
E|-------------------------------------------------------|

e|-13-------13---------------------------------------|
B|----13b15----13b15r13-11-13p11-11p10------------11-|
G|------------------------------------12----10-12----|
D|---------------------------------------12----------|
A|---------------------------------------------------|
E|---------------------------------------------------|

(4:19)
e|----------------------------------------------------------|
B|-11qb---------11qb----------------------17---------17p15--|
G|------12p10--------12p10----17b18r17-15-17----15~--17p15--|
D|-----------12-----------12-----------------17-------------|
A|----------------------------------------------------------|
E|----------------------------------------------------------|

e|---------------------------------------------------------|
B|-------------17---------17p15---------18-18--18-18-18-18-|
G|-17b18r17-15-17----15~--17p15--17b19---------------------|
D|---------------------------------------------------------|
A|---------------------------------------------------------|
E|---------------------------------------------------------|

e|----------15---------------------------------------------|
B|-18----17----18-17-15--17-15-----------------------------|
G|---------------------17-----15-14---15-14h15p14----------|
D|---------------------------------17------------17-17\12--|
A|---------------------------------------------------------|
E|---------------------------------------------------------|

e|-------------------------------------------------------------------|
B|-11----------------------------------------------------------------|
G|---12-----12-----12-----------------------------------------10--10-|
D|-----14p12--12h14--15p14-15p14-12-----12-----------------/12--12---|
A|---------------------------------12h13--16-15-13-16-15-13----------|
E|-------------------------------------------------------------------|

?) Bonus track solo:

---12--12--12--12--12--12--12--11--11-10-10-9-8~-8~--8~--|
------------------------------------------------8---8----|
-12--12--12--12--12--12--12--10--10--9--9--9-9-----------|
---------------------------------------------------------|
---------------------------------------------------------|
---------------------------------------------------------|


---12---10~-~---10b-10-p-8-10b-10-p-8-8~---|
------8-------8----------------------------|
-9-----------------------------------------|
-------------------------------------------|
-------------------------------------------|
-------------------------------------------|

-------8-----15--------15b-15p12-------------------|
-(8)/10---15b--15r-13------------15r-p13-15-15b-~--|
---------------------------------------------------|
---------------------------------------------------|
---------------------------------------------------|
---------------------------------------------------|


----------------------------------------|
--------15b-15~-~--15rp13-15-15b~--~----|
----------------------------------------|
----------------------------------------|
----------------------------------------|
----------------------------------------|

=====================================================================================
Velvet Revolver is Weiland, Kushner, Hudson, McKagan, Sorum.
RCA Records, 2007.
comments
We did not receive enough feedback on this tab! Please rate:
print report bad tab
1 2 3 4 5
I want to post or [tab]
guest
You may want to rate the tab now too:
select rating
Please do not post tabs as comments. Select "correction" instead!