Oops, an error
Loading. Please wait.

Loving The Alien Tab

ver3
ver3

Whole song

Interactive

More versions @911Tabs.com
7,145 views 3 this week
3 commentsread comments
1 2 3 4 5
excellent!
x 10
Autoscroll
+/-
esc
set tempo
stop
Contributor
Hey! There's an official Ultimate Guitar app which is ideal
for learning songs when you're away from computer. Get the app
WARNING: You are trying to view
                                    content from Ultimate-Guitar.com
                                    in an unauthorized application,
                                    which is prohibited.

                                    Please use an official Ultimate
                                    Guitar Tabs application for iPhone,
                                    iPad or Android to access legitimate
                                    chords, guitar, bass, and drum tabs
                                    from Ultimate-Guitar.com database.

                                    Type "ultimate guitar tabs" in Apple
                                    App Store's or Android Market's
                                    search to find the application.
                                LOVING THE ALIEN
                         As recorded by Velvet Revolver
                        (From the 2004 Album CONTRABAND)

Words by Scott Weiland

Music by Slash, Duff McKagan, Dave Kushner, Matt Sorum

           C                   Em
      x 3 2 0 1 0          0 2 2 0 0 0

Gtr I (E A D G B E) - 'Dave Kushner-Acoustic'
Gtr II (E A D G B E) - 'Slash-Clean w/Chorus'
Gtr III (E A D G B E) - 'Slash-Lead'
Gtr IV (E A D G B E) - 'Slash-Solo'
Gtr V (E A D G B E) - 'Dave Kushner-Acoustic Overdubs'
Gtr VI (E A D G B E) - 'Dave Kushner-Rhythm w/dist'

 Intro
  Q=125
 4/4
  Gtr I
  Wx4
|--------|
|--------|
|--------|
|--------|
|--------|
|--------|


   Verse
    C
     H        Q   +E  E   +E  E Q  E E E E
||---0--------0---(0)-0-|-(0)-0-0--0-0-0-0-|
||o--1--------1---(1)-1-|-(1)-1-1--1-1-1-1-|
||---0--------0---(0)-0-|-(0)-0-0--0-0-0-0-|
||---2--------2---(2)-2-|-(2)-2-2--2-2-2-2-|
||o--3--------3---(3)-3-|-(3)-3-3--3-3-3-3-|
||----------------------|------------------|
|
|   Gtr II
|    E E E E +H           +W
||---------8-(8)--------|-(8)--------------|
||o------8--------------|------------------|
||-----9----------------|------------------|
||--10------------------|------------------|
||o---------------------|------------------|
||----------------------|------------------|


  Am
  H        Q   +E  E   +E  E Q  E E E E
|-0--------0---(0)-0-|-(0)-0-0--0-0-0-0--|
|-1--------1---(1)-1-|-(1)-1-1--1-1-1-1--|
|-2--------2---(2)-2-|-(2)-2-2--2-2-2-2--|
|-2--------2---(2)-2-|-(2)-2-2--2-2-2-2--|
|-0--------0---(0)-0-|-(0)-0-0--0-0-0-0--|
|--------------------|-------------------|
|
| E E E E +H           +W
|-------5-(5)--------|-(5)---------------|
|-----5--------------|-------------------|
|---5----------------|-------------------|
|-7------------------|-------------------|
|--------------------|-------------------|
|--------------------|-------------------|


  Em
  H        Q   +E  E   +E  E Q  E E E E
|-0--------0---(0)-0-|-(0)-0-0--0-0-0-0-|
|-0--------0---(0)-0-|-(0)-0-0--0-0-0-0-|
|-0--------0---(0)-0-|-(0)-0-0--0-0-0-0-|
|-2--------2---(2)-2-|-(2)-2-2--2-2-2-2-|
|-2--------2---(2)-2-|-(2)-2-2--2-2-2-2-|
|-0--------0---(0)-0-|-(0)-0-0--0-0-0-0-|
|
| E E E E +H           +W
|-------7-(7)--------|-(7)--------------|
|-----8--------------|------------------|
|---9----------------|------------------|
|-9------------------|------------------|
|--------------------|------------------|
|--------------------|------------------|


  G
  H        Q   +E  E   +E  E Q  E E E E
|-3--------3---(3)-3-|-(3)-3-3--3-3-3-3--||
|-3--------3---(3)-3-|-(3)-3-3--3-3-3-3-o||
|-0--------0---(0)-0-|-(0)-0-0--0-0-0-0--||
|-0--------0---(0)-0-|-(0)-0-0--0-0-0-0--||
|-2--------2---(2)-2-|-(2)-2-2--2-2-2-2-o||
|-3--------3---(3)-3-|-(3)-3-3--3-3-3-3--||
|
| E E E E +H           +W
|-------7-(7)--------|-(7)---------------||
|-----8--------------|------------------o||
|---7----------------|-------------------||
|-5------------------|-------------------||
|--------------------|------------------o||
|--------------------|-------------------||


   Pre-Chorus
    F                                       G
      H    Q  +E  E   +E  E Q    E  E E E   H        Q  +E  E
||----1----1--(1)-1-|-(1)-1-1----1--1-1-1-|-3--------3--(3)-3-|
||o---1----1--(1)-1-|-(1)-1-1----1--1-1-1-|-3--------3--(3)-3-|
||----2----2--(2)-2-|-(2)-2-2----2--2-2-2-|-0--------0--(0)-0-|
||----3----3--(3)-3-|-(3)-3-3----3--3-3-3-|-0--------0--(0)-0-|
||o---3----3--(3)-3-|-(3)-3-3----3--3-3-3-|-2--------2--(2)-2-|
||----1----1--(1)-1-|-(1)-1-1----1--1-1-1-|-3--------3--(3)-3-|
|
|     H    H          +E  E E E +E  E E E   E E +H.
||---------8--------|-(8)-8-7-5-(5)-------|-5s7-(7)-----------|
||o--------6--------|-(6)-----------8-7-5-|-------------------|
||--^10-------------|---------------------|-------------------|
||--^10-------------|---------------------|-------------------|
||o-^-8-------------|---------------------|-------------------|
||------------------|---------------------|-------------------|
|
|   Gtr V
|     W                E  E E E +E  E E E   W
||------------------|---------------------|-------------------|
||o-----------------|---------------------|-------------------|
||------------------|---------------------|-------------------|
||------------------|-----3-2-0-(0)-------|-------------------|
||o-----------------|---------------3-2-0-|-------------------|
||------------------|---------------------|-3-----------------|


  1.,2.                3.
  +E  E Q  E E E E  3x +E   E Q  E E E  E
|-(3)-3-3--3-3-3-3--||-(3)--3-3--3-3-3--3---|
|-(3)-3-3--3-3-3-3-o||-(3)--3-3--3-3-3--3---|
|-(0)-0-0--0-0-0-0--||-(0)--0-0--0-0-0--0---|
|-(0)-0-0--0-0-0-0--||-(0)--0-0--0-0-0--0---|
|-(2)-2-2--2-2-2-2-o||-(2)--2-2--2-2-2--2---|
|-(3)-3-3--3-3-3-3--||-(3)--3-3--3-3-3--3---|
|
|                                      Gtr III
| +W                3x +H..             E
|-(7)---------------||-(7)------------------|
|------------------o||-----------------13---|
|-------------------||----------------------|
|-------------------||----------------------|
|------------------o||----------------------|
|-------------------||----------------------|
|
| +W                3x +W
|-------------------||----------------------|
|------------------o||----------------------|
|-------------------||----------------------|
|-------------------||----------------------|
|------------------o||----------------------|
|-(3)---------------||-(3)------------------|


   Chorus
    C
     H           Q    +E   E   +E   E  Q     E  E  E  E
||---0-----------0----(0)--0-|-(0)--0--0-----0--0--0--0-|
||o--1-----------1----(1)--1-|-(1)--1--1-----1--1--1--1-|
||---0-----------0----(0)--0-|-(0)--0--0-----0--0--0--0-|
||---2-----------2----(2)--2-|-(2)--2--2-----2--2--2--2-|
||o--3-----------3----(3)--3-|-(3)--3--3-----3--3--3--3-|
||---------------------------|--------------------------|
|
|    E  E  E  E  E  E  E   E    E   E  E  E  E  E  E  E
||--15----13----15----12-----|-15-----13----12-13-15----|
||o----13----13----13-----13-|-----13----13----------13-|
||---------------------------|--------------------------|
||---------------------------|--------------------------|
||o--------------------------|--------------------------|
||---------------------------|--------------------------|


  Em
   H           Q    +E   E   +E   E  Q     E  E  E  E
|--0-----------0----(0)--0-|-(0)--0--0-----0--0--0--0--|
|--0-----------0----(0)--0-|-(0)--0--0-----0--0--0--0--|
|--0-----------0----(0)--0-|-(0)--0--0-----0--0--0--0--|
|--2-----------2----(2)--2-|-(2)--2--2-----2--2--2--2--|
|--2-----------2----(2)--2-|-(2)--2--2-----2--2--2--2--|
|--0-----------0----(0)--0-|-(0)--0--0-----0--0--0--0--|
|
|  E  E  E  E  E  E  E   E    E   E  E  E  E  E  E  E
|-15----13----15----12-----|-15-----13----12-13-15-----|
|----13----13----13-----13-|-----13----13----------13--|
|--------------------------|---------------------------|
|--------------------------|---------------------------|
|--------------------------|---------------------------|
|--------------------------|---------------------------|


                                                        1.
  F                                                     G
   H           Q    +E   E   +E   E  Q     E  E  E  E    H           Q    +E   E
|--1-----------1----(1)--1-|-(1)--1--1-----1--1--1--1-|--3-----------3----(3)--3-|
|--1-----------1----(1)--1-|-(1)--1--1-----1--1--1--1-|--3-----------3----(3)--3-|
|--2-----------2----(2)--2-|-(2)--2--2-----2--2--2--2-|--0-----------0----(0)--0-|
|--3-----------3----(3)--3-|-(3)--3--3-----3--3--3--3-|--0-----------0----(0)--0-|
|--3-----------3----(3)--3-|-(3)--3--3-----3--3--3--3-|--2-----------2----(2)--2-|
|--1-----------1----(1)--1-|-(1)--1--1-----1--1--1--1-|--3-----------3----(3)--3-|
|
|  E  E  E  E  E  E  E   E    E   E  E  E  E  E  E  E    E  E  E  E  E  E  E   E
|-15----13----15----12-----|-15-----13----12-13-15----|-15----13----15----12-----|
|----13----13----13-----13-|-----13----13----------13-|----13----13----13-----13-|
|--------------------------|--------------------------|--------------------------|
|--------------------------|--------------------------|--------------------------|
|--------------------------|--------------------------|--------------------------|
|--------------------------|--------------------------|--------------------------|


                               2.
                               C                 G
  +E   E  Q     E  E  E  E      Q     E  E  Q     Q        +W
|-(3)--3--3-----3--3--3--3--||--0-----0--0--0-----3-----|--(3)--------------|
|-(3)--3--3-----3--3--3--3-o||--1-----1--1--1-----3-----|--(3)--------------|
|-(0)--0--0-----0--0--0--0--||--0-----0--0--0-----0-----|--(0)--------------|
|-(0)--0--0-----0--0--0--0--||--2-----2--2--2-----0-----|--(0)--------------|
|-(2)--2--2-----2--2--2--2-o||--3-----3--3--3-----2-----|--(2)--------------|
|-(3)--3--3-----3--3--3--3--||--------------------3-----|--(3)--------------|
|
|  E   E  E  E  E  E  E  E      E  E  E  E  E  E  Q        +H.       +Q
|-15-----13----12-13-15-----||-15----13----15----10b12r=|=(10)------(10)s===|
|-----13----13----------13-o||----13----13----13--------|-------------------|
|---------------------------||--------------------------|-------------------|
|---------------------------||--------------------------|-------------------|
|--------------------------o||--------------------------|-------------------|
|---------------------------||--------------------------|-------------------|


 Verse
  C
  Gtr III
   W                    +H       H
|--8------------------|-(8)------8s======|
|---------------------|------------------|
|---------------------|------------------|
|---------------------|------------------|
|---------------------|------------------|
|---------------------|------------------|
|
| Gtr I
|  H        Q   +E  E   +E  E Q  E E E E
|--0--------0---(0)-0-|-(0)-0-0--0-0-0-0-|
|--1--------1---(1)-1-|-(1)-1-1--1-1-1-1-|
|--0--------0---(0)-0-|-(0)-0-0--0-0-0-0-|
|--2--------2---(2)-2-|-(2)-2-2--2-2-2-2-|
|--3--------3---(3)-3-|-(3)-3-3--3-3-3-3-|
|---------------------|------------------|
|
| Gtr II
|  E E E E +H           +W
|--------8-(8)--------|-(8)--------------|
|------8--------------|------------------|
|----9----------------|------------------|
|-10------------------|------------------|
|---------------------|------------------|
|---------------------|------------------|


  Am
  W                    +H       H
|-5------------------|-(5)------5s======|
|--------------------|------------------|
|--------------------|------------------|
|--------------------|------------------|
|--------------------|------------------|
|--------------------|------------------|
|
| H        Q   +E  E   +E  E Q  E E E E
|-0--------0---(0)-0-|-(0)-0-0--0-0-0-0-|
|-1--------1---(1)-1-|-(1)-1-1--1-1-1-1-|
|-2--------2---(2)-2-|-(2)-2-2--2-2-2-2-|
|-2--------2---(2)-2-|-(2)-2-2--2-2-2-2-|
|-0--------0---(0)-0-|-(0)-0-0--0-0-0-0-|
|--------------------|------------------|
|
| E E E E +H           +W
|-------5-(5)--------|-(5)--------------|
|-----5--------------|------------------|
|---5----------------|------------------|
|-7------------------|------------------|
|--------------------|------------------|
|--------------------|------------------|


  Em
  W                    +H       H
|-7------------------|-(7)------7s======|
|--------------------|------------------|
|--------------------|------------------|
|--------------------|------------------|
|--------------------|------------------|
|--------------------|------------------|
|
| H        Q   +E  E   +E  E Q  E E E E
|-0--------0---(0)-0-|-(0)-0-0--0-0-0-0-|
|-0--------0---(0)-0-|-(0)-0-0--0-0-0-0-|
|-0--------0---(0)-0-|-(0)-0-0--0-0-0-0-|
|-2--------2---(2)-2-|-(2)-2-2--2-2-2-2-|
|-2--------2---(2)-2-|-(2)-2-2--2-2-2-2-|
|-0--------0---(0)-0-|-(0)-0-0--0-0-0-0-|
|
| E E E E +H           +W
|-------7-(7)--------|-(7)--------------|
|-----8--------------|------------------|
|---9----------------|------------------|
|-9------------------|------------------|
|--------------------|------------------|
|--------------------|------------------|


  G
   W                     +H        H
|-10------------------|-(10)------10s======|
|---------------------|--------------------|
|---------------------|--------------------|
|---------------------|--------------------|
|---------------------|--------------------|
|---------------------|--------------------|
|
|  H        Q   +E  E    +E  E Q   E E E E
|--3--------3---(3)-3-|--(3)-3-3---3-3-3-3-|
|--3--------3---(3)-3-|--(3)-3-3---3-3-3-3-|
|--0--------0---(0)-0-|--(0)-0-0---0-0-0-0-|
|--0--------0---(0)-0-|--(0)-0-0---0-0-0-0-|
|--2--------2---(2)-2-|--(2)-2-2---2-2-2-2-|
|--3--------3---(3)-3-|--(3)-3-3---3-3-3-3-|
|
|  E E E E +H            +W
|--------7-(7)--------|--(7)---------------|
|------8--------------|--------------------|
|----7----------------|--------------------|
|--5------------------|--------------------|
|---------------------|--------------------|
|---------------------|--------------------|


  C
   W                    +H           H
|--8------------------|-(8)----------8s============|
|---------------------|----------------------------|
|---------------------|----------------------------|
|---------------------|----------------------------|
|---------------------|----------------------------|
|---------------------|----------------------------|
|
|  H        Q   +E  E   +E   E Q     E  E     E  E
|--0--------0---(0)-0-|-(0)--0-0-----0--0-----0--0-|
|--1--------1---(1)-1-|-(1)--1-1-----1--1-----1--1-|
|--0--------0---(0)-0-|-(0)--0-0-----0--0-----0--0-|
|--2--------2---(2)-2-|-(2)--2-2-----2--2-----2--2-|
|--3--------3---(3)-3-|-(3)--3-3-----3--3-----3--3-|
|---------------------|----------------------------|
|
|  E E E E +H           +Q..       S E +S  S +E  E
|--------8-(8)--------|-(8)----------------8-(8)-7-|
|------8--------------|--------------8-(8)---------|
|----9----------------|----------^-9---------------|
|-10------------------|----------^10---------------|
|---------------------|----------------------------|
|---------------------|----------------------------|


  Am
  W                    +H       H
|-5------------------|-(5)------5s=======|
|--------------------|-------------------|
|--------------------|-------------------|
|--------------------|-------------------|
|--------------------|-------------------|
|--------------------|-------------------|
|
| H        Q   +E  E   +E  E Q  E E E E
|-0--------0---(0)-0-|-(0)-0-0--0-0-0-0--|
|-1--------1---(1)-1-|-(1)-1-1--1-1-1-1--|
|-2--------2---(2)-2-|-(2)-2-2--2-2-2-2--|
|-2--------2---(2)-2-|-(2)-2-2--2-2-2-2--|
|-0--------0---(0)-0-|-(0)-0-0--0-0-0-0--|
|--------------------|-------------------|
|
| E E E E +H           +W
|-------5-(5)--------|-(5)---------------|
|-----5--------------|-------------------|
|---5----------------|-------------------|
|-7------------------|-------------------|
|--------------------|-------------------|
|--------------------|-------------------|


  Em
  W                    +H       H
|-7------------------|-(7)------7s======|
|--------------------|------------------|
|--------------------|------------------|
|--------------------|------------------|
|--------------------|------------------|
|--------------------|------------------|
|
| H        Q   +E  E   +E  E Q  E E E E
|-0--------0---(0)-0-|-(0)-0-0--0-0-0-0-|
|-0--------0---(0)-0-|-(0)-0-0--0-0-0-0-|
|-0--------0---(0)-0-|-(0)-0-0--0-0-0-0-|
|-2--------2---(2)-2-|-(2)-2-2--2-2-2-2-|
|-2--------2---(2)-2-|-(2)-2-2--2-2-2-2-|
|-0--------0---(0)-0-|-(0)-0-0--0-0-0-0-|
|
| E E E E +H           +W
|-------7-(7)--------|-(7)--------------|
|-----8--------------|------------------|
|---9----------------|------------------|
|-9------------------|------------------|
|--------------------|------------------|
|--------------------|------------------|


  G
                                 >
   W                     +Q     +Q       +Q        +Q
|-10------------------|-(10)---(10)b12r=(10)b12r==(10)---|
|---------------------|----------------------------------|
|---------------------|----------------------------------|
|---------------------|----------------------------------|
|---------------------|----------------------------------|
|---------------------|----------------------------------|
|
|  H        Q   +E  E    +E  E   Q        E     E   E  E
|--3--------3---(3)-3-|--(3)-3---3--------3-----3---3--3-|
|--3--------3---(3)-3-|--(3)-3---3--------3-----3---3--3-|
|--0--------0---(0)-0-|--(0)-0---0--------0-----0---0--0-|
|--0--------0---(0)-0-|--(0)-0---0--------0-----0---0--0-|
|--2--------2---(2)-2-|--(2)-2---2--------2-----2---2--2-|
|--3--------3---(3)-3-|--(3)-3---3--------3-----3---3--3-|
|
|  E E E E +H            +W
|--------7-(7)--------|--(7)-----------------------------|
|------8--------------|----------------------------------|
|----7----------------|----------------------------------|
|--5------------------|----------------------------------|
|---------------------|----------------------------------|
|---------------------|----------------------------------|


   Pre-Chorus
    F                                       G
    Gtr I
      H    Q  +E  E   +E  E Q    E  E E E   H        Q  +E  E
||----1----1--(1)-1-|-(1)-1-1----1--1-1-1-|-3--------3--(3)-3-|
||o---1----1--(1)-1-|-(1)-1-1----1--1-1-1-|-3--------3--(3)-3-|
||----2----2--(2)-2-|-(2)-2-2----2--2-2-2-|-0--------0--(0)-0-|
||----3----3--(3)-3-|-(3)-3-3----3--3-3-3-|-0--------0--(0)-0-|
||o---3----3--(3)-3-|-(3)-3-3----3--3-3-3-|-2--------2--(2)-2-|
||----1----1--(1)-1-|-(1)-1-1----1--1-1-1-|-3--------3--(3)-3-|
|
|   Gtr II
|     H    H          +E  E E E +E  E E E   E E +H.
||---------8--------|-(8)-8-7-5-(5)-------|-5s7-(7)-----------|
||o--------6--------|-(6)-----------8-7-5-|-------------------|
||--^10-------------|---------------------|-------------------|
||--^10-------------|---------------------|-------------------|
||o-^-8-------------|---------------------|-------------------|
||------------------|---------------------|-------------------|
|
|   Gtr V
|     W                E  E E E +E  E E E   W
||------------------|---------------------|-------------------|
||o-----------------|---------------------|-------------------|
||------------------|---------------------|-------------------|
||------------------|-----3-2-0-(0)-------|-------------------|
||o-----------------|---------------3-2-0-|-------------------|
||------------------|---------------------|-3-----------------|


  1.,2.                3.
  +E  E Q  E E E E  3x +E   E Q  E E E  E
|-(3)-3-3--3-3-3-3--||-(3)--3-3--3-3-3--3---|
|-(3)-3-3--3-3-3-3-o||-(3)--3-3--3-3-3--3---|
|-(0)-0-0--0-0-0-0--||-(0)--0-0--0-0-0--0---|
|-(0)-0-0--0-0-0-0--||-(0)--0-0--0-0-0--0---|
|-(2)-2-2--2-2-2-2-o||-(2)--2-2--2-2-2--2---|
|-(3)-3-3--3-3-3-3--||-(3)--3-3--3-3-3--3---|
|
|                                      Gtr III
| +W                3x +H..             E
|-(7)---------------||-(7)------------------|
|------------------o||-----------------13---|
|-------------------||----------------------|
|-------------------||----------------------|
|------------------o||----------------------|
|-------------------||----------------------|
|
| +W                3x +W
|-------------------||----------------------|
|------------------o||----------------------|
|-------------------||----------------------|
|-------------------||----------------------|
|------------------o||----------------------|
|-(3)---------------||-(3)------------------|


   Chorus
    C
     H           Q    +E   E   +E   E  Q     E  E  E  E
||---0-----------0----(0)--0-|-(0)--0--0-----0--0--0--0-|
||o--1-----------1----(1)--1-|-(1)--1--1-----1--1--1--1-|
||---0-----------0----(0)--0-|-(0)--0--0-----0--0--0--0-|
||---2-----------2----(2)--2-|-(2)--2--2-----2--2--2--2-|
||o--3-----------3----(3)--3-|-(3)--3--3-----3--3--3--3-|
||---------------------------|--------------------------|
|
|    E  E  E  E  E  E  E   E    E   E  E  E  E  E  E  E
||--15----13----15----12-----|-15-----13----12-13-15----|
||o----13----13----13-----13-|-----13----13----------13-|
||---------------------------|--------------------------|
||---------------------------|--------------------------|
||o--------------------------|--------------------------|
||---------------------------|--------------------------|


  Em
   H           Q    +E   E   +E   E  Q     E  E  E  E
|--0-----------0----(0)--0-|-(0)--0--0-----0--0--0--0--|
|--0-----------0----(0)--0-|-(0)--0--0-----0--0--0--0--|
|--0-----------0----(0)--0-|-(0)--0--0-----0--0--0--0--|
|--2-----------2----(2)--2-|-(2)--2--2-----2--2--2--2--|
|--2-----------2----(2)--2-|-(2)--2--2-----2--2--2--2--|
|--0-----------0----(0)--0-|-(0)--0--0-----0--0--0--0--|
|
|  E  E  E  E  E  E  E   E    E   E  E  E  E  E  E  E
|-15----13----15----12-----|-15-----13----12-13-15-----|
|----13----13----13-----13-|-----13----13----------13--|
|--------------------------|---------------------------|
|--------------------------|---------------------------|
|--------------------------|---------------------------|
|--------------------------|---------------------------|


                                                        1.
  F                                                     G
   H           Q    +E   E   +E   E  Q     E  E  E  E    H           Q    +E   E
|--1-----------1----(1)--1-|-(1)--1--1-----1--1--1--1-|--3-----------3----(3)--3-|
|--1-----------1----(1)--1-|-(1)--1--1-----1--1--1--1-|--3-----------3----(3)--3-|
|--2-----------2----(2)--2-|-(2)--2--2-----2--2--2--2-|--0-----------0----(0)--0-|
|--3-----------3----(3)--3-|-(3)--3--3-----3--3--3--3-|--0-----------0----(0)--0-|
|--3-----------3----(3)--3-|-(3)--3--3-----3--3--3--3-|--2-----------2----(2)--2-|
|--1-----------1----(1)--1-|-(1)--1--1-----1--1--1--1-|--3-----------3----(3)--3-|
|
|  E  E  E  E  E  E  E   E    E   E  E  E  E  E  E  E    E  E  E  E  E  E  E   E
|-15----13----15----12-----|-15-----13----12-13-15----|-15----13----15----12-----|
|----13----13----13-----13-|-----13----13----------13-|----13----13----13-----13-|
|--------------------------|--------------------------|--------------------------|
|--------------------------|--------------------------|--------------------------|
|--------------------------|--------------------------|--------------------------|
|--------------------------|--------------------------|--------------------------|


                               2.
                               C                 G
  +E   E  Q     E  E  E  E      Q     E  E  Q     Q        +Q   E E E E E E
|-(3)--3--3-----3--3--3--3--||--0-----0--0--0-----3-----|--(3)---------------|
|-(3)--3--3-----3--3--3--3-o||--1-----1--1--1-----3-----|--(3)----------3-3--|
|-(0)--0--0-----0--0--0--0--||--0-----0--0--0-----0-----|--(0)--------0-0-0--|
|-(0)--0--0-----0--0--0--0--||--2-----2--2--2-----0-----|--(0)------0-0-0-0--|
|-(2)--2--2-----2--2--2--2-o||--3-----3--3--3-----2-----|--(2)--2-2-2-2-2-2--|
|-(3)--3--3-----3--3--3--3--||--------------------3-----|--(3)--3-3-3-3-3-3--|
|
|  E   E  E  E  E  E  E  E      E  E  E  E  E  E  Q        +W
|-15-----13----12-13-15-----||-15----13----15----10b12r=|=(10)---------------|
|-----13----13----------13-o||----13----13----13--------|--------------------|
|---------------------------||--------------------------|--------------------|
|---------------------------||--------------------------|--------------------|
|--------------------------o||--------------------------|--------------------|
|---------------------------||--------------------------|--------------------|


 Bridge
  D
  H       Q  +E  E   +E  E Q     E   E E   E
|-2-------2--(2)-2-|-(2)-2-2-----2---2-2---2-|
|-3-------3--(3)-3-|-(3)-3-3-----3---3-3---3-|
|-2-------2--(2)-2-|-(2)-2-2-----2---2-2---2-|
|-0-------0--(0)-0-|-(0)-0-0-----0---0-0---0-|
|------------------|-------------------------|
|------------------|-------------------------|
|
| Gtr II
| E E H.             +Q    S S E S S E S S E
|------------------|-------------------------|
|-----3------------|-(3)---3h5p3-------------|
|------------------|-------------2h4p2-------|
|-2p0--------------|-------------------0h2p0-|
|------------------|-------------------------|
|------------------|-------------------------|


  Cadd9
  H      Q  +E  E   +E  E Q     E   E E   E
|-0------0--(0)-0-|-(0)-0-0-----0---0-0---0-|
|-3------3--(3)-3-|-(3)-3-3-----3---3-3---3-|
|-0------0--(0)-0-|-(0)-0-0-----0---0-0---0-|
|-2------2--(2)-2-|-(2)-2-2-----2---2-2---2-|
|-3------3--(3)-3-|-(3)-3-3-----3---3-3---3-|
|-----------------|-------------------------|
|
| Q  H.             +Q    S S E S S E S S E
|-----------------|-------------------------|
|----1------------|-(1)---0h1p0-------1h3p1-|
|-----------------|-------------0h2p0-------|
|-2---------------|-------------------------|
|-----------------|-------------------------|
|-----------------|-------------------------|


  G/B                                       D
  H    Q  +E  E   +E  E Q     E   E E   E   H     Q  +E E   +E  E Q   E E E E
|-3----3--(3)-3-|-(3)-3-3-----3---3-3---3-|-2-----2--(2)2-|-(2)-2-2---2-2-2-2--|
|-3----3--(3)-3-|-(3)-3-3-----3---3-3---3-|-3-----3--(3)3-|-(3)-3-3---3-3-3-3--|
|-0----0--(0)-0-|-(0)-0-0-----0---0-0---0-|-2-----2--(2)2-|-(2)-2-2---2-2-2-2--|
|-0----0--(0)-0-|-(0)-0-0-----0---0-0---0-|-0-----0--(0)0-|-(0)-0-0---0-0-0-0--|
|-2----2--(2)-2-|-(2)-2-2-----2---2-2---2-|---------------|--------------------|
|---------------|-------------------------|---------------|--------------------|
|
| W               +Q    S S E S S E S S E   H.        E E    E  E E E E E E E
|---------------|-------------------------|---------------|--------------------|
|---------------|-------------------------|---------------|--------------------|
|---------------|-------4h5p4-------------|---------------|-------7-9-7--------|
|---------------|-------------5h7p5-2h4p2-|-0-------------|-----7-------9-7----|
|-2-------------|-(2)---------------------|-----------5s7-|--9--------------9--|
|---------------|-------------------------|---------------|--------------------|


  D
  H    Q     +E   E   +E   E Q     E   E E   E
|-2----2-----(2)--2-|-(2)--2-2-----2---2-2---2-|
|-3----3-----(3)--3-|-(3)--3-3-----3---3-3---3-|
|-2----2-----(2)--2-|-(2)--2-2-----2---2-2---2-|
|-0----0-----(0)--0-|-(0)--0-0-----0---0-0---0-|
|-------------------|--------------------------|
|-------------------|--------------------------|
|
| H    S S E  S S E    S S E S S E S S E S S E
|-------------------|--------------------------|
|------3h5p3--------|--3h5p3-------3h5p3-------|
|-------------2h4p2-|--------2h4p2-------2h4p2-|
|-0-----------------|--------------------------|
|-------------------|--------------------------|
|-------------------|--------------------------|


  Cadd9
   H      Q  +E  E   +E  E Q   E E E E
|--0------0--(0)-0-|-(0)-0-0---0-0-0-0-|
|--3------3--(3)-3-|-(3)-3-3---3-3-3-3-|
|--0------0--(0)-0-|-(0)-0-0---0-0-0-0-|
|--2------2--(2)-2-|-(2)-2-2---2-2-2-2-|
|--3------3--(3)-3-|-(3)-3-3---3-3-3-3-|
|------------------|-------------------|
|
|  H..           E   +E  E E E E E E E
|----------------3-|-(3)---1-0-1-0-----|
|------------------|-----1---------3-1-|
|-^0---------------|-------------------|
|-^2---------------|-------------------|
|-^3---------------|-------------------|
|------------------|-------------------|


  G/B
  H          Q   +E  E   +E  E Q   E E E E
|-3----------3---(3)-3-|-(3)-3-3---3-3-3-3-|
|-3----------3---(3)-3-|-(3)-3-3---3-3-3-3-|
|-0----------0---(0)-0-|-(0)-0-0---0-0-0-0-|
|-0----------0---(0)-0-|-(0)-0-0---0-0-0-0-|
|-2----------2---(2)-2-|-(2)-2-2---2-2-2-2-|
|----------------------|-------------------|
|
| E E +E  E +Q    E  E   +E  E E E E E E E
|---------3-(3)------3-|-(3)---3---3s5-3p2-|
|-1s3-(3)---------3----|-----3---3---------|
|----------------------|-------------------|
|----------------------|-------------------|
|----------------------|-------------------|
|----------------------|-------------------|
|
| Gtr IV
| W                       W
|----------------------|-------------------|
|----------------------|-------------------|
|----------------------|-------------------|
|----------------------|-------------------|
|----------------------|-------------------|
|----------------------|-------------------|


  D
  H      Q   +E  E   +E  E Q   E E  E     E
|-2------2---(2)-2-|-(2)-2-2---2-2--2-----2-|
|-3------3---(3)-3-|-(3)-3-3---3-3--3-----3-|
|-2------2---(2)-2-|-(2)-2-2---2-2--2-----2-|
|-0------0---(0)-0-|-(0)-0-0---0-0--0-----0-|
|------------------|------------------------|
|------------------|------------------------|
|
| E E Q  E E  E  E    E  E E E E E  E     E
|-3p2--------------|------------------------|
|-----3--3-5--3----|-----3-------3--------3-|
|----------------2-|--4----0----------------|
|------------------|---------3s4----2-------|
|------------------|------------------------|
|------------------|------------------------|
|
| W                   H.            S  S  E
|------------------|------------------------|
|------------------|---------------------12-|
|------------------|---------------12h14----|
|------------------|------------------------|
|------------------|------------------------|
|------------------|------------------------|


 Guitar Solo
  D
   H        Q      +E  E    +E   E Q           E    E  E  E
|--2--------2------(2)-2-|--(2)--2-2-----------2----2--2--2-|
|--3--------3------(3)-3-|--(3)--3-3-----------3----3--3--3-|
|--2--------2------(2)-2-|--(2)--2-2-----------2----2--2--2-|
|--0--------0------(0)-0-|--(0)--0-0-----------0----0--0--0-|
|------------------------|----------------------------------|
|------------------------|----------------------------------|
|
|  H        Q.         E    +Q     H.
|-^2--------2------------|----------------------------------|
|-^3--------3----------3-|--(3)----3------------------------|
|-^2-------------------2-|--(2)----2------------------------|
|-^0---------------------|----------------------------------|
|------------------------|----------------------------------|
|------------------------|----------------------------------|
|
|                            ~~~~~
|  H        H               +Q..       S      +E   +Q     E
|----------12b14=========|=(12)r------12b14==(12)r(12)------|
|-13b15------------------|-------------------------------15-|
|------------------------|----------------------------------|
|------------------------|----------------------------------|
|------------------------|----------------------------------|
|------------------------|----------------------------------|


  Cadd9
   H          Q    +E    E        +E  E   Q            E  E  E  E
|--0----------0----(0)---0-----|--(0)-0---0------------0--0--0--0-|
|--3----------3----(3)---3-----|--(3)-3---3------------3--3--3--3-|
|--0----------0----(0)---0-----|--(0)-0---0------------0--0--0--0-|
|--2----------2----(2)---2-----|--(2)-2---2------------2--2--2--2-|
|--3----------3----(3)---3-----|--(3)-3---3------------3--3--3--3-|
|------------------------------|----------------------------------|
|
|  H          Q.         E        +Q      H.
|------------------------------|----------------------------------|
|-^5----------5----------5-----|--(5)-----5-----------------------|
|-^5----------5----------5-----|--(5)-----5-----------------------|
|-^5---------------------------|----------------------------------|
|-^3---------------------------|----------------------------------|
|------------------------------|----------------------------------|
|
|             ~~~~
|  H         +Q    +E    E        +Q     +E   +E      +Q     E  E
|-----------------------12b14==|=(12)---(12)r(12)b14r(12)---10h12-|
|-15b17=====(15)--(15)r--------|----------------------------------|
|------------------------------|----------------------------------|
|------------------------------|----------------------------------|
|------------------------------|----------------------------------|
|------------------------------|----------------------------------|


  G/B
   H        Q    +E     E   +E E Q    E  E E  E
|--3--------3----(3)----3-|-(3)3-3----3--3-3--3-|
|--3--------3----(3)----3-|-(3)3-3----3--3-3--3-|
|--0--------0----(0)----0-|-(0)0-0----0--0-0--0-|
|--0--------0----(0)----0-|-(0)0-0----0--0-0--0-|
|--2--------2----(2)----2-|-(2)2-2----2--2-2--2-|
|-------------------------|---------------------|
|
|  H        Q.          E   +Q   H.
|-------------------------|---------------------|
|-^3--------3-----------3-|-(3)--3--------------|
|-^0--------0-----------0-|-(0)--0--------------|
|-^0----------------------|---------------------|
|-^2----------------------|---------------------|
|-------------------------|---------------------|
|
|                                ~~
|  |--3--|  |----3----|
|  Q  Q  Q  Q  Q      Q      E E Q   +Q    E  E
|-10----------------------|---------------------|
|----12-12-12S10-----10---|-10s8-8---(8)---8s10-|
|-------------------------|---------------------|
|-------------------------|---------------------|
|-------------------------|---------------------|
|-------------------------|---------------------|


  D
    H               Q   +E E   +E E Q    E E E E
|---2---------------2---(2)2-|-(2)2-2----2-2-2-2-|
|---3---------------3---(3)3-|-(3)3-3----3-3-3-3-|
|---2---------------2---(2)2-|-(2)2-2----2-2-2-2-|
|---0---------------0---(0)0-|-(0)0-0----0-0-0-0-|
|----------------------------|-------------------|
|----------------------------|-------------------|
|
|   H               Q.     E   +Q   H.
|-^-2---------------2--------|-------------------|
|-^-3---------------3------3-|-(3)--3------------|
|-^-2----------------------2-|-(2)--2------------|
|-^-0------------------------|-------------------|
|----------------------------|-------------------|
|----------------------------|-------------------|
|
|  +E      +E  E  E E E  E E    E E E  E E E E E
|----------------------------|-------------------|
|-(10)b12r(10)-8-10-8p7--8p7-|--5s7-5------------|
|----------------------------|---------7-5-4-5-4-|
|----------------------------|-------------------|
|----------------------------|-------------------|
|----------------------------|-------------------|


  D
   H       Q    +E  E       +E   E Q    E    E E E
|--2-------2----(2)-2-----|-(2)--2-2----2----2-2-2-|
|--3-------3----(3)-3-----|-(3)--3-3----3----3-3-3-|
|--2-------2----(2)-2-----|-(2)--2-2----2----2-2-2-|
|--0-------0----(0)-0-----|-(0)--0-0----0----0-0-0-|
|-------------------------|------------------------|
|-------------------------|------------------------|
|
|  H       Q.       E       +Q     H.
|-^2-------2--------------|------------------------|
|-^3-------3--------3-----|-(3)----3---------------|
|-^2----------------2-----|-(2)----2---------------|
|-^0----------------------|------------------------|
|-------------------------|------------------------|
|-------------------------|------------------------|
|
|      ~~~~~~~
|  E E Q  +E  E  E  E       +Q.       E Q.       E
|-------------------8-----|-(8)-------8-8--------8-|
|-------------------8b10==|=(8)r--------8b10r======|
|-------------------------|------------------------|
|--7-5-7--(7)-7h=9--------|------------------------|
|-------------------------|------------------------|
|-------------------------|------------------------|


  Cadd9
   H             Q     +E  E       +E   E Q      E  E   E    E
|--0-------------0-----(0)-0-----|-(0)--0-0------0--0---0----0--|
|--3-------------3-----(3)-3-----|-(3)--3-3------3--3---3----3--|
|--0-------------0-----(0)-0-----|-(0)--0-0------0--0---0----0--|
|--2-------------2-----(2)-2-----|-(2)--2-2------2--2---2----2--|
|--3-------------3-----(3)-3-----|-(3)--3-3------3--3---3----3--|
|--------------------------------|------------------------------|
|
|  H             Q.        E       +Q     H.
|--------------------------------|------------------------------|
|-^5-------------5---------5-----|-(5)----5---------------------|
|-^5-------------5---------5-----|-(5)----5---------------------|
|-^5-----------------------------|------------------------------|
|-^3-----------------------------|------------------------------|
|--------------------------------|------------------------------|
|
|  E     +Q    E Q      E  E       +E   E Q     +E  S S E   +E
|--8-----(8)---8-8------8--8-----|-(8)--8-----------------------|
|--8b10==(8)r----8b10r=====8b10==|=(8)r---8b10r=(8)-6h8-8---(8)-|
|--------------------------------|----------------------7b9r(7)-|
|--------------------------------|------------------------------|
|--------------------------------|------------------------------|
|--------------------------------|------------------------------|


  G/B
   H                Q           +E  E   +E  E Q    E   E   E   E
|--3----------------3-----------(3)-3-|-(3)-3-3----3---3---3---3----|
|--3----------------3-----------(3)-3-|-(3)-3-3----3---3---3---3----|
|--0----------------0-----------(0)-0-|-(0)-0-0----0---0---0---0----|
|--0----------------0-----------(0)-0-|-(0)-0-0----0---0---0---0----|
|--2----------------2-----------(2)-2-|-(2)-2-2----2---2---2---2----|
|-------------------------------------|-----------------------------|
|
|  H                Q.              E   +Q    H.
|-------------------------------------|-----------------------------|
|-^3----------------3---------------3-|-(3)---3---------------------|
|-^0----------------0---------------0-|-(0)---0---------------------|
|-^0----------------------------------|-----------------------------|
|-^2----------------------------------|-----------------------------|
|-------------------------------------|-----------------------------|
|
|                                                  |--3--| |--3---|
| +Q      +E  +S  S S  S    +E  +Q      +Q    E  E E E   E E E    E
|-------------------------------------|-----------------------------|
|-(8)-----(8)-(8)---------------------|------------------5-8-5---10-|
|-(7)b9===(7)-(7)r5h7-----------------|------------4-7--------------|
|----------------------7b9==(7)-(7)r==|=(7)---5--7------------------|
|-------------------------------------|-----------------------------|
|-------------------------------------|-----------------------------|


  G
  E    E     E    E     E    E     E    E           E      E     E    E          E  E   E       E
|-----------------------------------------------|----------------------------------------------------------|
|-----------------------------------------------|----------------------------------------------------------|
|-----------------------------------------------|---4------4-----4----4----------4--4---4-------4----------|
|-----------------------5----5-----5----5-------|---5------5-----5----5----------5--5---5-------5----------|
|-5----5-----5----5-----5----5-----5----5-------|---5------5-----5----5----------5--5---5-------5----------|
|-3----3-----3----3-----3----3-----3----3-------|---3------3-----3----3----------3--3---3-------3----------|
|
| E    E     E    E     E    E     E    E           E      E     E    E          E  E   E       E
|-----------------------------------------------|----------------------------------------------------------|
|-----------------------------------------------|----------------------------------------------------------|
|-----------------------------------------------|---4------4-----4----4----------4--4---4-------4----------|
|-----------------------5----5-----5----5-------|---5------5-----5----5----------5--5---5-------5----------|
|-5----5-----5----5-----5----5-----5----5-------|---5------5-----5----5----------5--5---5-------5----------|
|-3----3-----3----3-----3----3-----3----3-------|---3------3-----3----3----------3--3---3-------3----------|
|
| |---3---|  |---3---|  |---3---|  |---3---|        |----3----|  |---3---|              |-----3------|
| E  E    E  E  E    E  E  E    E  E  E    E       +E    E    E  E  E    E      +Q     +E   E       +E
|-----------------------------------------------|-------17---15-19-17---20b22==(20)---(20)-20r=====(20)----|
|-8-12---10-13-12---15-13-17---15-18-17---18b20r|=(18)----------------------------------------(13)---------|
|-----------------------------------------------|----------------------------------------------------------|
|-----------------------------------------------|----------------------------------------------------------|
|-----------------------------------------------|----------------------------------------------------------|
|-----------------------------------------------|----------------------------------------------------------|
                                                    H..                                         E


 Out-Chorus
  C
  Gtr VI
   W                                +W
   |                                 |
   /                                 /

  Gtr I
   H                Q     +E   E    +E   E  Q     E  E  E  E
|--0----------------0-----(0)--0-|--(0)--0--0-----0--0--0--0-|
|--1----------------1-----(1)--1-|--(1)--1--1-----1--1--1--1-|
|--0----------------0-----(0)--0-|--(0)--0--0-----0--0--0--0-|
|--2----------------2-----(2)--2-|--(2)--2--2-----2--2--2--2-|
|--3----------------3-----(3)--3-|--(3)--3--3-----3--3--3--3-|
|--------------------------------|---------------------------|
|
| Gtr III
|  E  E  E      E   E   E  E   E     E   E  E  E  E  E  E  E
|-15----13---------15-----12-----|--15-----13----12-13-15----|
|----13--------13------13-----13-|------13----13----------13-|
|--------------------------------|---------------------------|
|--------------------------------|---------------------------|
|--------------------------------|---------------------------|
|--------------------------------|---------------------------|
|
| Gtr IV
|  E  E  Q         +H               +W
|-19-20-19b20=====(19)-----------|-(19)----------------------|
|--------------------------------|---------------------------|
|--------------------------------|---------------------------|
|--------------------------------|---------------------------|
|--------------------------------|---------------------------|
|--------------------------------|---------------------------|


  Em
    W                           +W
    |                            |
    /                            /

    H            Q    +E   E    +E   E  Q     E  E  E  E
|---0------------0----(0)--0-|--(0)--0--0-----0--0--0--0-|
|---0------------0----(0)--0-|--(0)--0--0-----0--0--0--0-|
|---0------------0----(0)--0-|--(0)--0--0-----0--0--0--0-|
|---2------------2----(2)--2-|--(2)--2--2-----2--2--2--2-|
|---2------------2----(2)--2-|--(2)--2--2-----2--2--2--2-|
|---0------------0----(0)--0-|--(0)--0--0-----0--0--0--0-|
|
|   E   E  E  E  E  E  E   E     E   E  E  E  E  E  E  E
|--15-----13----15----12-----|--15-----13----12-13-15----|
|------13----13----13-----13-|------13----13----------13-|
|----------------------------|---------------------------|
|----------------------------|---------------------------|
|----------------------------|---------------------------|
|----------------------------|---------------------------|
|
|                                >
|  +W                           +W
|-(19)r======================|=(19)----------------------|
|----------------------------|---------------------------|
|----------------------------|---------------------------|
|----------------------------|---------------------------|
|----------------------------|---------------------------|
|----------------------------|---------------------------|


  F
   H           Q    +E   E   +E   E  Q     E  E  E  E
|--1-----------1----(1)--1-|-(1)--1--1-----1--1--1--1-|
|--1-----------1----(1)--1-|-(1)--1--1-----1--1--1--1-|
|--2-----------2----(2)--2-|-(2)--2--2-----2--2--2--2-|
|--3-----------3----(3)--3-|-(3)--3--3-----3--3--3--3-|
|--3-----------3----(3)--3-|-(3)--3--3-----3--3--3--3-|
|--1-----------1----(1)--1-|-(1)--1--1-----1--1--1--1-|
|
|  E  E  E  E  E  E  E   E    E   E  E  E  E  E  E  E
|-15----13----15----12-----|-15-----13----12-13-15----|
|----13----13----13-----13-|-----13----13----------13-|
|--------------------------|--------------------------|
|--------------------------|--------------------------|
|--------------------------|--------------------------|
|--------------------------|--------------------------|
|
| Gtr VI
|  W                         +W
|--1-----------------------|-(1)----------------------|
|--1-----------------------|-(1)----------------------|
|--2-----------------------|-(2)----------------------|
|--3-----------------------|-(3)----------------------|
|--3-----------------------|-(3)----------------------|
|--1-----------------------|-(1)----------------------|


  G
   H           Q    +E   E   +E   E  Q     E  E  E  E
|--3-----------3----(3)--3-|-(3)--3--3-----3--3--3--3-|
|--3-----------3----(3)--3-|-(3)--3--3-----3--3--3--3-|
|--0-----------0----(0)--0-|-(0)--0--0-----0--0--0--0-|
|--0-----------0----(0)--0-|-(0)--0--0-----0--0--0--0-|
|--2-----------2----(2)--2-|-(2)--2--2-----2--2--2--2-|
|--3-----------3----(3)--3-|-(3)--3--3-----3--3--3--3-|
|
|  E  E  E  E  E  E  E   E    E   E  E  E  E  E  E  E
|-15----13----15----12-----|-15-----13----12-13-15----|
|----13----13----13-----13-|-----13----13----------13-|
|--------------------------|--------------------------|
|--------------------------|--------------------------|
|--------------------------|--------------------------|
|--------------------------|--------------------------|
|
|  W                         +W
|--3-----------------------|-(3)----------------------|
|--3-----------------------|-(3)----------------------|
|--4-----------------------|-(4)----------------------|
|--5-----------------------|-(5)----------------------|
|--5-----------------------|-(5)----------------------|
|--3-----------------------|-(3)----------------------|


    C
     H           Q    +E   E   +E   E  Q     E  E  E  E
||---0-----------0----(0)--0-|-(0)--0--0-----0--0--0--0-|
||o--1-----------1----(1)--1-|-(1)--1--1-----1--1--1--1-|
||---0-----------0----(0)--0-|-(0)--0--0-----0--0--0--0-|
||---2-----------2----(2)--2-|-(2)--2--2-----2--2--2--2-|
||o--3-----------3----(3)--3-|-(3)--3--3-----3--3--3--3-|
||---------------------------|--------------------------|
|
|    E  E  E  E  E  E  E   E    E   E  E  E  E  E  E  E
||--15----13----15----12-----|-15-----13----12-13-15----|
||o----13----13----13-----13-|-----13----13----------13-|
||---------------------------|--------------------------|
||---------------------------|--------------------------|
||o--------------------------|--------------------------|
||---------------------------|--------------------------|
|
|    W                         +W
||---0-----------------------|-(0)----------------------|
||o--1-----------------------|-(1)----------------------|
||---0-----------------------|-(0)----------------------|
||---2-----------------------|-(2)----------------------|
||o--3-----------------------|-(3)----------------------|
||---------------------------|--------------------------|


  Em
   H           Q    +E   E   +E   E  Q     E  E  E  E
|--0-----------0----(0)--0-|-(0)--0--0-----0--0--0--0--|
|--0-----------0----(0)--0-|-(0)--0--0-----0--0--0--0--|
|--0-----------0----(0)--0-|-(0)--0--0-----0--0--0--0--|
|--2-----------2----(2)--2-|-(2)--2--2-----2--2--2--2--|
|--2-----------2----(2)--2-|-(2)--2--2-----2--2--2--2--|
|--0-----------0----(0)--0-|-(0)--0--0-----0--0--0--0--|
|
|  E  E  E  E  E  E  E   E    E   E  E  E  E  E  E  E
|-15----13----15----12-----|-15-----13----12-13-15-----|
|----13----13----13-----13-|-----13----13----------13--|
|--------------------------|---------------------------|
|--------------------------|---------------------------|
|--------------------------|---------------------------|
|--------------------------|---------------------------|
|
|  W                         +W
|--0-----------------------|-(0)-----------------------|
|--0-----------------------|-(0)-----------------------|
|--0-----------------------|-(0)-----------------------|
|--2-----------------------|-(2)-----------------------|
|--2-----------------------|-(2)-----------------------|
|--0-----------------------|-(0)-----------------------|


  F
   H           Q    +E   E   +E   E  Q     E  E  E  E
|--1-----------1----(1)--1-|-(1)--1--1-----1--1--1--1-|
|--1-----------1----(1)--1-|-(1)--1--1-----1--1--1--1-|
|--2-----------2----(2)--2-|-(2)--2--2-----2--2--2--2-|
|--3-----------3----(3)--3-|-(3)--3--3-----3--3--3--3-|
|--3-----------3----(3)--3-|-(3)--3--3-----3--3--3--3-|
|--1-----------1----(1)--1-|-(1)--1--1-----1--1--1--1-|
|
|  E  E  E  E  E  E  E   E    E   E  E  E  E  E  E  E
|-15----13----15----12-----|-15-----13----12-13-15----|
|----13----13----13-----13-|-----13----13----------13-|
|--------------------------|--------------------------|
|--------------------------|--------------------------|
|--------------------------|--------------------------|
|--------------------------|--------------------------|
|
|  W                         +W
|--1-----------------------|-(1)----------------------|
|--1-----------------------|-(1)----------------------|
|--2-----------------------|-(2)----------------------|
|--3-----------------------|-(3)----------------------|
|--3-----------------------|-(3)----------------------|
|--1-----------------------|-(1)----------------------|


  G
   H           Q    +E   E   +E   E  Q     E  E  E  E
|--3-----------3----(3)--3-|-(3)--3--3-----3--3--3--3--||
|--3-----------3----(3)--3-|-(3)--3--3-----3--3--3--3-o||
|--0-----------0----(0)--0-|-(0)--0--0-----0--0--0--0--||
|--0-----------0----(0)--0-|-(0)--0--0-----0--0--0--0--||
|--2-----------2----(2)--2-|-(2)--2--2-----2--2--2--2-o||
|--3-----------3----(3)--3-|-(3)--3--3-----3--3--3--3--||
|
|  E  E  E  E  E  E  E   E    E   E  E  E  E  E  E  E
|-15----13----15----12-----|-15-----13----12-13-15-----||
|----13----13----13-----13-|-----13----13----------13-o||
|--------------------------|---------------------------||
|--------------------------|---------------------------||
|--------------------------|--------------------------o||
|--------------------------|---------------------------||
|
|  W                         +W
|--3-----------------------|-(3)-----------------------||
|--3-----------------------|-(3)----------------------o||
|--4-----------------------|-(4)-----------------------||
|--5-----------------------|-(5)-----------------------||
|--5-----------------------|-(5)----------------------o||
|--3-----------------------|-(3)-----------------------||


    C
     H           Q    +E   E   +E   E  Q     E  E  E  E
||---0-----------0----(0)--0-|-(0)--0--0-----0--0--0--0-|
||o--1-----------1----(1)--1-|-(1)--1--1-----1--1--1--1-|
||---0-----------0----(0)--0-|-(0)--0--0-----0--0--0--0-|
||---2-----------2----(2)--2-|-(2)--2--2-----2--2--2--2-|
||o--3-----------3----(3)--3-|-(3)--3--3-----3--3--3--3-|
||---------------------------|--------------------------|
|
|    E  E  E  E  E  E  E   E    E   E  E  E  E  E  E  E
||--15----13----15----12-----|-15-----13----12-13-15----|
||o----13----13----13-----13-|-----13----13----------13-|
||---------------------------|--------------------------|
||---------------------------|--------------------------|
||o--------------------------|--------------------------|
||---------------------------|--------------------------|


  Em
   H           Q    +E   E   +E   E  Q     E  E  E  E
|--0-----------0----(0)--0-|-(0)--0--0-----0--0--0--0--|
|--0-----------0----(0)--0-|-(0)--0--0-----0--0--0--0--|
|--0-----------0----(0)--0-|-(0)--0--0-----0--0--0--0--|
|--2-----------2----(2)--2-|-(2)--2--2-----2--2--2--2--|
|--2-----------2----(2)--2-|-(2)--2--2-----2--2--2--2--|
|--0-----------0----(0)--0-|-(0)--0--0-----0--0--0--0--|
|
|  E  E  E  E  E  E  E   E    E   E  E  E  E  E  E  E
|-15----13----15----12-----|-15-----13----12-13-15-----|
|----13----13----13-----13-|-----13----13----------13--|
|--------------------------|---------------------------|
|--------------------------|---------------------------|
|--------------------------|---------------------------|
|--------------------------|---------------------------|


  F
   H           Q    +E   E   +E   E  Q     E  E  E  E
|--1-----------1----(1)--1-|-(1)--1--1-----1--1--1--1-|
|--1-----------1----(1)--1-|-(1)--1--1-----1--1--1--1-|
|--2-----------2----(2)--2-|-(2)--2--2-----2--2--2--2-|
|--3-----------3----(3)--3-|-(3)--3--3-----3--3--3--3-|
|--3-----------3----(3)--3-|-(3)--3--3-----3--3--3--3-|
|--1-----------1----(1)--1-|-(1)--1--1-----1--1--1--1-|
|
|  E  E  E  E  E  E  E   E    E   E  E  E  E  E  E  E
|-15----13----15----12-----|-15-----13----12-13-15----|
|----13----13----13-----13-|-----13----13----------13-|
|--------------------------|--------------------------|
|--------------------------|--------------------------|
|--------------------------|--------------------------|
|--------------------------|--------------------------|


  G
   H           Q    +E   E   +E   E  Q     E  E  E  E
|--3-----------3----(3)--3-|-(3)--3--3-----3--3--3--3--||
|--3-----------3----(3)--3-|-(3)--3--3-----3--3--3--3-o||
|--0-----------0----(0)--0-|-(0)--0--0-----0--0--0--0--||
|--0-----------0----(0)--0-|-(0)--0--0-----0--0--0--0--||
|--2-----------2----(2)--2-|-(2)--2--2-----2--2--2--2-o||
|--3-----------3----(3)--3-|-(3)--3--3-----3--3--3--3--||
|
|  E  E  E  E  E  E  E   E    E   E  E  E  E  E  E  E
|-15----13----15----12-----|-15-----13----12-13-15-----||
|----13----13----13-----13-|-----13----13----------13-o||
|--------------------------|---------------------------||
|--------------------------|---------------------------||
|--------------------------|--------------------------o||
|--------------------------|---------------------------||


  C
   W                        +W
|-^0----------------------|-(0)----------------------|
|-^1----------------------|-(1)----------------------|
|-^0----------------------|-(0)----------------------|
|-^2----------------------|-(2)----------------------|
|-^3----------------------|-(3)----------------------|
|-------------------------|--------------------------|
|
|  E  E  E  E  E  E  E  E    E   E  E  E  E  E  E  E
|-15----13----15----12----|-15-----13----12-13-15----|
|----13----13----13----13-|-----13----13----------13-|
|-------------------------|--------------------------|
|-------------------------|--------------------------|
|-------------------------|--------------------------|
|-------------------------|--------------------------|


   >
  +W                         +W
|-(0)----------------------|-(0)----------------------|
|-(1)----------------------|-(1)----------------------|
|-(0)----------------------|-(0)----------------------|
|-(2)----------------------|-(2)----------------------|
|-(3)----------------------|-(3)----------------------|
|--------------------------|--------------------------|
|
|  E   E  E  E  E  E  E  E    E   E  E  E  E  E  E  E
|-15-----13----15----12----|-15-----13----12-13-15----|
|-----13----13----13----13-|-----13----13----------13-|
|--------------------------|--------------------------|
|--------------------------|--------------------------|
|--------------------------|--------------------------|
|--------------------------|--------------------------|


    N.C.
    Gtr III
     E  E  E  E  E  E  E  E    E  E  E  E  E  E  E  E
||--15----13----15----12----|-15----13----12-13-15----|
||o----13----13----13----13-|----13----13----------13-|
||--------------------------|-------------------------|
||--------------------------|-------------------------|
||o-------------------------|-------------------------|
||--------------------------|-------------------------|


   E  E  E  E  E  E  E  E    E  E  E  E  E  E  E  E
|-15----13----15----12----|-15----13----12-13-15------||
|----13----13----13----13-|----13----13----------13--o||
|-------------------------|---------------------------||
|-------------------------|---------------------------||
|-------------------------|--------------------------o||
|-------------------------|---------------------------||


Duration Legend
---------------
W - whole; H - half; Q - quarter; E - 8th; S - 16th; T - 32nd; X - 64th; a - acciaccatura
+ - note tied to previous; . - note dotted; .. - note double dotted
Uncapitalized letters represent notes that are staccato (1/2 duration)
Irregular groupings are notated above the duration line
Duration letters will always appear directly above the note/fret number it represents the
duration for.  Duration letters with no fret number below them represent rests.  Multi-
bar rests are notated in the form Wxn, where n is the number of bars to rest for.  Low
melody durations appear below the staff

Tablature Legend
----------------
 h   - hammer-on
 p   - pull-off
 b   - bend
 pb  - pre-bend
 r   - bend release (if no number after the r, then release immediately)
 /\  - slide into or out of (from/to "nowhere")
 s   - legato slide
 S   - shift slide
  - natural harmonic
[n]  - artificial harmonic
n(n) - tapped harmonic
 ~   - vibrato
 tr  - trill
 T   - tap
 TP  - trem. picking
 PM  - palm muting
\n/  - tremolo bar dip; n = amount to dip
 \n  - tremolo bar down
 n/  - tremolo bar up
/n\  - tremolo bar inverted dip
 =   - hold bend; also acts as connecting device for hammers/pulls
 <>  - volume swell (louder/softer)
 x   - on rhythm slash represents muted slash
 o   - on rhythm slash represents single note slash

Misc Legend
-----------
 |  - bar
||  - double bar
||o - repeat start
o|| - repeat end
*|  - double bar (ending)
 :  - bar (freetime)
 $  - Segno
 &  - Coda
Tempo markers -  = BPM(8/16=s8/s16), where s8 = swing 8ths, s16 = swing 16ths
comments
print report bad tab
3 comments total.
0 reply
xpert wrote on February 12 2005, 12:00 am

If I didn't know any better I would say that's straight from a book :P

0 reply
SGstriker wrote on November 11 2006, 02:06 am

Either your a genius, or this is outta the book. I dont really give a shit if it is from the book. Great tab 5/5

0 reply
PARAxCONDROID wrote on May 19 2008, 03:21 pm

It is straight from the book.
but who cares!!
they are the best ones out there.
AWESOME JOB DUDE!!

I want to post or [tab]
guest
You may want to rate the tab now too:
select rating
Please do not post tabs as comments. Select "correction" instead!