Oops, an error
Loading. Please wait.

Set Me Free Tab

ver1
ver1

Whole song

Interactive

More versions @911Tabs.com
8,467 views 18 this week
no commentswrite comment
1 2 3 4 5
excellent!
x 1
Autoscroll
+/-
esc
set tempo
stop
Contributor
Hey! There's an official Ultimate Guitar app which is ideal
for learning songs when you're away from computer. Get the app
WARNING: You are trying to view
                                    content from Ultimate-Guitar.com
                                    in an unauthorized application,
                                    which is prohibited.

                                    Please use an official Ultimate
                                    Guitar Tabs application for iPhone,
                                    iPad or Android to access legitimate
                                    chords, guitar, bass, and drum tabs
                                    from Ultimate-Guitar.com database.

                                    Type "ultimate guitar tabs" in Apple
                                    App Store's or Android Market's
                                    search to find the application.
Band- Velvet Revolver
Song- Set Me Free

 A5open                 D5V                  G5X                  F5I
      x 0 2 x x x          x 5 7 7 x x        x 10 12 12 x x         1 3 x x x x

         E5VII                 C5X                F5VIII
      x 7 9 9 x x        x x 10 12 13 x        x 8 10 10 x x

Gtr I (E A D G B E) - 'Slash Lead'
Gtr II (E A D G B E) - 'Dave Kushner Rhythm'
Gtr III (E A D G B E) - 'Dave Kushner Lead'
Gtr IV (E A D G B E) - 'Dave Kushner Lead Overdub'
Gtr V (E A D G B E) - 'Overdub Solo and Bends'

  Intro
   Q=163
   N.C.
  4/4
   Gtr II
   W                     W                 W
   Gtr I
   E S S E E  E  q  E   +E  E E E E E q    E E  E E  E  q  E
||-x-x-x-x-x-11-10--8-|-(8)-8-8-x-9------|----------11-10--8-|
||-x-x-x-x-x--x--x--x-|-(x)-x-x-x-x-x-8--|-9-x-10-x--x--x--x-|
||-x-x-x-x-x--8--7--5-|-(5)-5-5-x-6-x-x--|-x-x--x-x--8--7--5-|
||-x-x-x-x-x----------|-------------x-5--|-6-x--7-x----------|
||--------------------|------------------|-------------------|
||--------------------|------------------|-------------------|


                                     A5open
   W                 H         E  Q  E
                                  |  |
                                  o  /

  +E  E E E E E q    E E  E E  E  q  E
|-(8)-8-8-x-9------|----------11-10--8----||
|-(x)-x-x-x-x-x-8--|-9-x-10-x--x--x--x----||
|-(5)-5-5-x-6-x-x--|-x-x--x-x--8--7--5----||
|-------------x-5--|-6-x--7-x-------------||
|------------------|----------------------||
|------------------|----------------------||


   A5open                                A5open
   +W                 +H..               E
    |                  |                 |
    /                  /                 /

   +E  E E E E E q     E   E  E E  E  q  E
||-(8)-8-8-x-9------|-------------11-10--8-|
||-(x)-x-x-x-x-x-8--|--9---x-10-x--x--x--x-|
||-(5)-5-5-x-6-x-x--|--x---x--x-x--8--7--5-|
||-------------x-5--|--6---x--7-x----------|
||------------------|----------------------|
||------------------|----------------------|


                                        A5open
  +W                 +H..               E
   |                  |                 |
   /                  /                 /

  +E  E E E E E q     E   E  E E  E  q  E
|-(8)-8-8-x-9------|-------------11-10--8--|
|-(x)-x-x-x-x-x-8--|--9---x-10-x--x--x--x--|
|-(5)-5-5-x-6-x-x--|--x---x--x-x--8--7--5--|
|-------------x-5--|--6---x--7-x-----------|
|------------------|-----------------------|
|------------------|-----------------------|


  A5open                                A5open
  +W                 +H..               E
   |                  |                 |
   /                  /                 /

  +E  E E E E E q     E   E  E E  E  q  E
|-(8)-8-8-x-9------|-------------11-10--8-|
|-(x)-x-x-x-x-x-8--|--9---x-10-x--x--x--x-|
|-(5)-5-5-x-6-x-x--|--x---x--x-x--8--7--5-|
|-------------x-5--|--6---x--7-x----------|
|------------------|----------------------|
|------------------|----------------------|


                                           A5open
  +W                 +H..                  E
   |                  |                    |
   /                  /                    /

  +E  E E E E E q     E   E  E E E   +E  E E
|-(8)-8-8-x-9------|-------------------------||
|-(x)-x-x-x-x-x-8--|--9---x-10-x-7b8r(7)-5---||
|-(5)-5-5-x-6-x-x--|--x---x--x-x-7b8r(7)-5---||
|-------------x-5--|--6---x--7-x-----------7-||
|------------------|-------------------------||
|------------------|-------------------------||


   A5open
   +E  E E E E E E E   +E E E E E    E  E E
    |  | | | | | | |    | | | | |    |  | |
    /  / / / / / / /    / / / / /    /  / /

   +E  E E E E E E E    E E E E E   +E  E E
||-------------------|----------------------|
||-------------------|----------7b8r(7)-5---|
||-------5-5-6-6-----|----------7b8r(7)-5---|
||-(7)-7---------5-5-|--6-6-7-7-----------7-|
||-------------------|----------------------|
||-------------------|----------------------|
|
|  Gtrs III, IV
|   E  E E E E E E E    E E E E E   +E  E E
||-------------------|----------------------|
||-------------------|----------------------|
||-------------------|----------------------|
||-------------------|--------------------2-|
||-----0-3-3-4-4-----|----------5b6r(5)p3-0-|
||---------------3-3-|--4-4-5-5-------------|


  +E  E E E E E E E   +E E E E E    E  E E
   |  | | | | | | |    | | | | |    |  | |
   /  / / / / / / /    / / / / /    /  / /

  +E  E E E E E E E    E E E E E   +E  E E
|-------------------|-----------------------|
|-------------------|----------7b8r(7)-5----|
|-------5-5-6-6-----|----------7b8r(7)-5----|
|-(7)-7---------5-5-|--6-6-7-7-----------7--|
|-------------------|-----------------------|
|-------------------|-----------------------|
|
| +E  E E E E E E E    E E E E E   +E  E E
|-------------------|-----------------------|
|-------------------|-----------------------|
|-------------------|-----------------------|
|-(2)---------------|--------------------2--|
|-(0)-0-3-3-4-4-----|----------5b6r(5)p3-0--|
|---------------3-3-|--4-4-5-5--------------|


  A5open
  +E  E E E E E E E   +E E E E E    E  E E
   |  | | | | | | |    | | | | |    |  | |
   /  / / / / / / /    / / / / /    /  / /

  +E  E E E E E E E    E E E E E   +E  E E
|-------------------|----------------------|
|-------------------|----------7b8r(7)-5---|
|-------5-5-6-6-----|----------7b8r(7)-5---|
|-(7)-7---------5-5-|--6-6-7-7-----------7-|
|-------------------|----------------------|
|-------------------|----------------------|
|
| +E  E E E E E E E    E E E E E   +E  E E
|-------------------|----------------------|
|-------------------|----------------------|
|-------------------|----------------------|
|-(2)---------------|--------------------2-|
|-(0)-0-3-3-4-4-----|----------5b6r(5)p3-0-|
|---------------3-3-|--4-4-5-5-------------|


  +E  E E E E E E E   +E E E E E    E  E E
   |  | | | | | | |    | | | | |    |  |
   /  / / / / / / /    / / / / /    /  /

  +E  E E E E E E E    E E E E E   +E  E E
|-------------------|----------------------||
|-------------------|----------7b8r(7)-5---||
|-------5-5-6-6-----|----------7b8r(7)-5---||
|-(7)-7---------5-5-|--6-6-7-7-----------2-||
|-------------------|--------------------0-||
|-------------------|----------------------||
|
| +E  E E E E E E E    E E E E E   +E  E E
|-------------------|----------------------||
|-------------------|----------------------||
|-------------------|----------------------||
|-(2)---------------|--------------------2-||
|-(0)-0-3-3-4-4-----|----------5b6r(5)p3-0-||
|---------------3-3-|--4-4-5-5-------------||


  Verse
   A5open                                                      A5open
    W            W             W            H..                E
                                                               |
                                                               /

    >
   +W           +H..       E   Wx5          E   S S E E  E  q  E
||------------|--------------|------------|-x---x-x-x-x-11-10--8-||
||------------|--------------|------------|-x---x-x-x-x--x--x--x-||
||------------|--------------|------------|-x---x-x-x-x--8--7--5-||
||-(2)--------|-(2)----------|------------|-x---x-x-x-x----------||
||-(0)--------|-(0)----------|------------|----------------------||
||------------|--------------|------------|----------------------||
|
|   >
|  +W           +H..       E   Wx5          H..                E
||------------|--------------|------------|----------------------||
||------------|--------------|------------|----------------------||
||------------|--------------|------------|----------------------||
||-(2)--------|-(2)----------|------------|--------------------2-||
||-(0)--------|-(0)----------|------------|--------------------0-||
||------------|--------------|------------|----------------------||


  Pre-Chorus
   A5open
   +E  E E E E E E E   +E E  E E  E    E  E E
    |  | | | | | | |    | |  | |  |    |  | |
    /  / / / / / / /    / /  / /  /    /  / /

   +E  E E E E E q      E E  E E  E    q    E
||-(8)-8-8-x-9-------|-----------11---10----8-|
||-(x)-x-x-x-x-x-8---|--9-x-10-x--x----x----x-|
||-(5)-5-5-x-6-x-x---|--x-x--x-x--8----7----5-|
||-------------x-5---|--6-x--7-x--------------|
||-------------------|------------------------|
||-------------------|------------------------|
|
|  +E  E E E E E E E    E E  E E  E   +E  E E
||-------------------|------------------------|
||-------------------|------------------------|
||-------------------|------------------------|
||-(2)---------------|----------------------2-|
||-(0)-0-3-3-4-4-----|------------5b6r(5)p3-0-|
||---------------3-3-|--4-4--5-5--------------|


  +E  E E E E E E E   +E E  E E  E    E  E E
   |  | | | | | | |    | |  | |  |    |  | |
   /  / / / / / / /    / /  / /  /    /  / /

  +E  E E E E E q      E E  E E  E    q    E
|-(8)-8-8-x-9-------|-----------11---10----8--|
|-(x)-x-x-x-x-x-8---|--9-x-10-x--x----x----x--|
|-(5)-5-5-x-6-x-x---|--x-x--x-x--8----7----5--|
|-------------x-5---|--6-x--7-x---------------|
|-------------------|-------------------------|
|-------------------|-------------------------|
|
| +E  E E E E E E E    E E  E E  E   +E  E E
|-------------------|-------------------------|
|-------------------|-------------------------|
|-------------------|-------------------------|
|-(2)---------------|----------------------2--|
|-(0)-0-3-3-4-4-----|------------5b6r(5)p3-0--|
|---------------3-3-|--4-4--5-5---------------|


  A5open
  +E  E E E E E E E   +E E  E E  E    E  E E
   |  | | | | | | |    | |  | |  |    |  | |
   /  / / / / / / /    / /  / /  /    /  / /

  +E  E E E E E q      E E  E E  E    q    E
|-(8)-8-8-x-9-------|-----------11---10----8-|
|-(x)-x-x-x-x-x-8---|--9-x-10-x--x----x----x-|
|-(5)-5-5-x-6-x-x---|--x-x--x-x--8----7----5-|
|-------------x-5---|--6-x--7-x--------------|
|-------------------|------------------------|
|-------------------|------------------------|
|
| +E  E E E E E E E    E E  E E  E   +E  E E
|-------------------|------------------------|
|-------------------|------------------------|
|-------------------|------------------------|
|-(2)---------------|----------------------2-|
|-(0)-0-3-3-4-4-----|------------5b6r(5)p3-0-|
|---------------3-3-|--4-4--5-5--------------|


                                           D5V
  +E  E E E E E E E   +E E  E E  E    E  E E
   |  | | | | | | |    | |  | |  |    |  | |
   /  / / / / / / /    / /  / /  /    /  / /

  +E  E E E E E q      E E  E E  E    q    E
|-(8)-8-8-x-9-------|-----------11---10------||
|-(x)-x-x-x-x-x-8---|--9-x-10-x--x----x------||
|-(5)-5-5-x-6-x-x---|--x-x--x-x--8----7----7-||
|-------------x-5---|--6-x--7-x------------7-||
|-------------------|----------------------5-||
|-------------------|------------------------||
|
| +E  E E E E E E E    E E  E E  E   +E  E E
|-------------------|------------------------||
|-------------------|------------------------||
|-------------------|----------------------7-||
|-(2)---------------|----------------------7-||
|-(0)-0-3-3-4-4-----|------------5b6r(5)p3-5-||
|---------------3-3-|--4-4--5-5--------------||


  Chorus
   D5V              D5V                  D5V
   +E   E E E E E E E   +E   E E E E E E E
    |   | | | | | | |    |   | | | | | | |
    /   / / / / / / /    /   / / / / / / /

   +H..             E   +H..             E
||--------------------|--------------------|
||--------------------|--------------------|
||-(7)--------------3-|-(3)--------------5-|
||-(7)--------------3-|-(3)--------------5-|
||-(5)--------------1-|-(1)--------------3-|
||--------------------|--------------------|
|
|  +Q     Q   E E E E   +Q     Q   E E E E
||--------------------|--------------------|
||--------------------|--------------------|
||-(7)----7---7-7---7-|-(7)----7---7-7---7-|
||-(7)----7---7-7---7-|-(7)----7---7-7---7-|
||-(5)----5---5-5---5-|-(5)----5---5-5---5-|
||--------------------|--------------------|


                   G5X                  D5V
  +E   E E E E E E E   +E   E E E E E E E
   |   | | | | | | |    |   | | | | | | |
   /   / / / / / / /    /   / / / / / / /

  +H..             E   +H..             E
|--------------------|--------------------|
|--------------------|--------------------|
|-(5)----------------|------------------7-|
|-(5)--------------5-|-(5)--------------7-|
|-(3)--------------5-|-(5)--------------5-|
|------------------3-|-(3)----------------|
|
| +Q     Q   E E E E   +Q     Q   E E E E
|--------------------|--------------------|
|------------------8-|-(8)----8---8-8-----|
|-(7)----7---7-7---7-|-(7)----7---7-7---7-|
|-(7)----7---7-7---5-|-(5)----5---5-5---7-|
|-(5)----5---5-5-----|------------------5-|
|--------------------|--------------------|


  D5V              D5V                  F5I
  +E   E E E E E E E   +E   E E E E E E  E
   |   | | | | | | |    |   | | | | | |  |
   /   / / / / / / /    /   / / / / / /  /

  +H..             E   +H..              E
|--------------------|---------------------|
|--------------------|---------------------|
|-(7)--------------3-|-(3)--------------10-|
|-(7)--------------3-|-(3)--------------10-|
|-(5)--------------1-|-(1)---------------8-|
|--------------------|---------------------|
|
| +Q     Q   E E E E   +Q     Q   E E E  E
|--------------------|---------------------|
|--------------------|-------------------6-|
|-(7)----7---7-7---7-|-(7)----7---7-7----5-|
|-(7)----7---7-7---7-|-(7)----7---7-7----3-|
|-(5)----5---5-5---5-|-(5)----5---5-5------|
|--------------------|---------------------|


                                      E5VII A5open
   +E   E E E E E E   E     +E  E E E E E E E
    |   | | | | | |   |      |  | | | | | | |
    /   / / / / / /   /      /  / / / / / / /

   +H..              +E     +H        E E E E
|------------------------|---------------------||
|------------------------|---------------------||
|-(10)--------------(10)-|-(10)-------9-9-9----||
|-(10)--------------(10)-|-(10)-------9-9-9-7--||
|--(8)---------------(8)-|--(8)-------7-7-7----||
|------------------------|---------------------||
|
|  +Q     Q   E E E   E     +Q    Q   E E E E
|------------------------|---------------------||
|--(6)----6---6-6-----6--|--(6)---6------------||
|--(5)----5---5-5-----5--|--(5)---5---9-9-9----||
|--(3)----3---3-3-----3--|--(3)---3---9-9-9-2--||
|------------------------|------------7-7-7-0--||
|------------------------|---------------------||


  Bridge
   A5open
   +E  E E E E E E E   +E E E E E    E  E E
    |  | | | | | | |    | | | | |    |  | |
    /  / / / / / / /    / / / / /    /  / /

   +E  E E E E E E E    E E E E E   +E  E E
||-------------------|----------------------|
||-------------------|----------7b8r(7)-5---|
||-------5-5-6-6-----|----------7b8r(7)-5---|
||-(7)-7---------5-5-|--6-6-7-7-----------7-|
||-------------------|----------------------|
||-------------------|----------------------|
|
|  +E  E E E E E E E    E E E E E   +E  E E
||-------------------|----------------------|
||-------------------|----------------------|
||-------------------|----------------------|
||-(2)---------------|--------------------2-|
||-(0)-0-3-3-4-4-----|----------5b6r(5)p3-0-|
||---------------3-3-|--4-4-5-5-------------|


  +E  E E E E E E E   +E E E E E    E  E E
   |  | | | | | | |    | | | | |    |  |
   /  / / / / / / /    / / / / /    /  /

  +E  E E E E E E E    E E E E E   +E  E E
|-------------------|----------------------||
|-------------------|----------7b8r(7)-5---||
|-------5-5-6-6-----|----------7b8r(7)-5---||
|-(7)-7---------5-5-|--6-6-7-7-----------2-||
|-------------------|--------------------0-||
|-------------------|----------------------||
|
| +E  E E E E E E E    E E E E E   +E  E E
|-------------------|----------------------||
|-------------------|----------------------||
|-------------------|----------------------||
|-(2)---------------|--------------------2-||
|-(0)-0-3-3-4-4-----|----------5b6r(5)p3-0-||
|---------------3-3-|--4-4-5-5-------------||


  Verse
   A5open                                                      A5open
    W            W             W            H..                E
                                                               |
                                                               /

    >
   +W           +H..       E   Wx5          E   S S E E  E  q  E
||------------|--------------|------------|-x---x-x-x-x-11-10--8--||
||------------|--------------|------------|-x---x-x-x-x--x--x--x--||
||------------|--------------|------------|-x---x-x-x-x--8--7--5--||
||-(2)--------|-(2)----------|------------|-x---x-x-x-x-----------||
||-(0)--------|-(0)----------|------------|-----------------------||
||------------|--------------|------------|-----------------------||
|
|   >
|  +W           +H..       E   Wx5          H..                E
||------------|--------------|------------|-----------------------||
||------------|--------------|------------|-----------------------||
||------------|--------------|------------|-----------------------||
||-(2)--------|-(2)----------|------------|--------------------2--||
||-(0)--------|-(0)----------|------------|--------------------0--||
||------------|--------------|------------|-----------------------||


  Pre-Chorus
   A5open
   +E  E E E E E E E   +E E  E E  E    E  E E
    |  | | | | | | |    | |  | |  |    |  | |
    /  / / / / / / /    / /  / /  /    /  / /

   +E  E E E E E q      E E  E E  E    q    E
||-(8)-8-8-x-9-------|-----------11---10----8-|
||-(x)-x-x-x-x-x-8---|--9-x-10-x--x----x----x-|
||-(5)-5-5-x-6-x-x---|--x-x--x-x--8----7----5-|
||-------------x-5---|--6-x--7-x--------------|
||-------------------|------------------------|
||-------------------|------------------------|
|
|  +E  E E E E E E E    E E  E E  E   +E  E E
||-------------------|------------------------|
||-------------------|------------------------|
||-------------------|------------------------|
||-(2)---------------|----------------------2-|
||-(0)-0-3-3-4-4-----|------------5b6r(5)p3-0-|
||---------------3-3-|--4-4--5-5--------------|


  +E  E E E E E E E   +E E  E E  E    E  E E
   |  | | | | | | |    | |  | |  |    |  | |
   /  / / / / / / /    / /  / /  /    /  / /

  +E  E E E E E q      E E  E E  E    q    E
|-(8)-8-8-x-9-------|-----------11---10----8-|
|-(x)-x-x-x-x-x-8---|--9-x-10-x--x----x----x-|
|-(5)-5-5-x-6-x-x---|--x-x--x-x--8----7----5-|
|-------------x-5---|--6-x--7-x--------------|
|-------------------|------------------------|
|-------------------|------------------------|
|
| +E  E E E E E E E    E E  E E  E   +E  E E
|-------------------|------------------------|
|-------------------|------------------------|
|-------------------|------------------------|
|-(2)---------------|----------------------2-|
|-(0)-0-3-3-4-4-----|------------5b6r(5)p3-0-|
|---------------3-3-|--4-4--5-5--------------|


  A5open
  +E  E E E E E E E   +E E  E E  E    E  E E
   |  | | | | | | |    | |  | |  |    |  | |
   /  / / / / / / /    / /  / /  /    /  / /

  +E  E E E E E q      E E  E E  E    q    E
|-(8)-8-8-x-9-------|-----------11---10----8-|
|-(x)-x-x-x-x-x-8---|--9-x-10-x--x----x----x-|
|-(5)-5-5-x-6-x-x---|--x-x--x-x--8----7----5-|
|-------------x-5---|--6-x--7-x--------------|
|-------------------|------------------------|
|-------------------|------------------------|
|
| +E  E E E E E E E    E E  E E  E   +E  E E
|-------------------|------------------------|
|-------------------|------------------------|
|-------------------|------------------------|
|-(2)---------------|----------------------2-|
|-(0)-0-3-3-4-4-----|------------5b6r(5)p3-0-|
|---------------3-3-|--4-4--5-5--------------|


                                           D5V
  +E  E E E E E E E   +E E  E E  E    E  E E
   |  | | | | | | |    | |  | |  |    |  | |
   /  / / / / / / /    / /  / /  /    /  / /

  +E  E E E E E q      E E  E E  E    q    E
|-(8)-8-8-x-9-------|-----------11---10-------||
|-(x)-x-x-x-x-x-8---|--9-x-10-x--x----x-------||
|-(5)-5-5-x-6-x-x---|--x-x--x-x--8----7----7--||
|-------------x-5---|--6-x--7-x------------7--||
|-------------------|----------------------5--||
|-------------------|-------------------------||
|
| +E  E E E E E E E    E E  E E  E   +E  E E
|-------------------|-------------------------||
|-------------------|-------------------------||
|-------------------|----------------------7--||
|-(2)---------------|----------------------7--||
|-(0)-0-3-3-4-4-----|------------5b6r(5)p3-5--||
|---------------3-3-|--4-4--5-5---------------||


  Chorus
   D5V              D5V                  D5V
   +E   E E E E E E E   +E   E E E E E E E
    |   | | | | | | |    |   | | | | | | |
    /   / / / / / / /    /   / / / / / / /

   +H..             E   +H..             E
||--------------------|--------------------|
||--------------------|--------------------|
||-(7)--------------3-|-(3)--------------5-|
||-(7)--------------3-|-(3)--------------5-|
||-(5)--------------1-|-(1)--------------3-|
||--------------------|--------------------|
|
|  +Q     Q   E E E E   +Q     Q   E E E E
||--------------------|--------------------|
||--------------------|--------------------|
||-(7)----7---7-7---7-|-(7)----7---7-7---7-|
||-(7)----7---7-7---7-|-(7)----7---7-7---7-|
||-(5)----5---5-5---5-|-(5)----5---5-5---5-|
||--------------------|--------------------|


                   G5X                  D5V
  +E   E E E E E E E   +E   E E E E E E E
   |   | | | | | | |    |   | | | | | | |
   /   / / / / / / /    /   / / / / / / /

  +H..             E   +H..             E
|--------------------|--------------------|
|--------------------|--------------------|
|-(5)----------------|------------------7-|
|-(5)--------------5-|-(5)--------------7-|
|-(3)--------------5-|-(5)--------------5-|
|------------------3-|-(3)----------------|
|
| +Q     Q   E E E E   +Q     Q   E E E E
|--------------------|--------------------|
|------------------8-|-(8)----8---8-8-----|
|-(7)----7---7-7---7-|-(7)----7---7-7---7-|
|-(7)----7---7-7---5-|-(5)----5---5-5---7-|
|-(5)----5---5-5-----|------------------5-|
|--------------------|--------------------|


  D5V              D5V                  G5X
  +E   E E E E E E E   +E   E E E E E E E
   |   | | | | | | |    |   | | | | | | |
   /   / / / / / / /    /   / / / / / / /

  +H..             E   +H..             E
|--------------------|--------------------|
|--------------------|--------------------|
|-(7)--------------3-|-(3)----------------|
|-(7)--------------3-|-(3)--------------5-|
|-(5)--------------1-|-(1)--------------5-|
|--------------------|------------------3-|
|
| +Q     Q   E E E E   +Q     Q   E E E E
|--------------------|--------------------|
|--------------------|------------------8-|
|-(7)----7---7-7---7-|-(7)----7---7-7---7-|
|-(7)----7---7-7---7-|-(7)----7---7-7---5-|
|-(5)----5---5-5---5-|-(5)----5---5-5-----|
|--------------------|--------------------|


                   C5X                       D5V
  +E   E E E E E E  E    +E   E  E E  E  E E E
   |   | | | | | |  |     |   |  | |  |  | | |
   /   / / / / / /  /     /   /  / /  /  / / /

  +H..              E    +H..                E
|---------------------|-------------------------||
|---------------------|-------------------------||
|-------------------5-|--(5)-----------------7--||
|-(5)---------------5-|--(5)-----------------7--||
|-(5)---------------3-|--(3)-----------------5--||
|-(3)-----------------|-------------------------||
|
| +Q     Q   E E E  E    +Q      Q    E  E E E
|---------------------|-------------------------||
|-(8)----8---8-8---13-|-(13)----13---13-13------||
|-(7)----7---7-7---12-|-(12)----12---12-12---7--||
|-(5)----5---5-5---10-|-(10)----10---10-10---7--||
|---------------------|----------------------5--||
|---------------------|-------------------------||


   D5V              D5V                  D5V
   +E   E E E E E E E   +E   E E E E E E E
    |   | | | | | | |    |   | | | | | | |
    /   / / / / / / /    /   / / / / / / /

   +H..             E   +H..             E
||--------------------|--------------------|
||--------------------|--------------------|
||-(7)--------------3-|-(3)--------------5-|
||-(7)--------------3-|-(3)--------------5-|
||-(5)--------------1-|-(1)--------------3-|
||--------------------|--------------------|
|
|  +Q     Q   E E E E   +Q     Q   E E E E
||--------------------|--------------------|
||--------------------|--------------------|
||-(7)----7---7-7---7-|-(7)----7---7-7---7-|
||-(7)----7---7-7---7-|-(7)----7---7-7---7-|
||-(5)----5---5-5---5-|-(5)----5---5-5---5-|
||--------------------|--------------------|


                   G5X                  D5V
  +E   E E E E E E E   +E   E E E E E E E
   |   | | | | | | |    |   | | | | | | |
   /   / / / / / / /    /   / / / / / / /

  +H..             E   +H..             E
|--------------------|--------------------|
|--------------------|--------------------|
|-(5)----------------|------------------7-|
|-(5)--------------5-|-(5)--------------7-|
|-(3)--------------5-|-(5)--------------5-|
|------------------3-|-(3)----------------|
|
| +Q     Q   E E E E   +Q     Q   E E E E
|--------------------|--------------------|
|------------------8-|-(8)----8---8-8-----|
|-(7)----7---7-7---7-|-(7)----7---7-7---7-|
|-(7)----7---7-7---5-|-(5)----5---5-5---7-|
|-(5)----5---5-5-----|------------------5-|
|--------------------|--------------------|


  D5V              D5V                  F5I
   E   E E E E E E E   +E   E E E E E E  E
   |   | | | | | | |    |   | | | | | |  |
   /   / / / / / / /    /   / / / / / /  /

  +H..             E   +H..              E
|--------------------|---------------------|
|--------------------|---------------------|
|-(7)--------------3-|-(3)--------------10-|
|-(7)--------------3-|-(3)--------------10-|
|-(5)--------------1-|-(1)---------------8-|
|--------------------|---------------------|
|
| +Q     Q   E E E E   +Q     Q   E E E  E
|--------------------|---------------------|
|--------------------|-------------------6-|
|-(7)----7---7-7---7-|-(7)----7---7-7----5-|
|-(7)----7---7-7---7-|-(7)----7---7-7----3-|
|-(5)----5---5-5---5-|-(5)----5---5-5------|
|--------------------|---------------------|


                                             F5VIII
                                             Gtrs II, III, IV
   +E   E E E E E E   E     +E   E E E E E E E
    |   | | | | | |   |      |   | | | | | | |
    /   / / / / / /   /      /   / / / / / / /

                                             Gtr I
   +H..              +E     +H..             E
|------------------------|----------------------||
|------------------------|----------------------||
|-(10)--------------(10)-|-(10)-----------------||
|-(10)--------------(10)-|-(10)-----------------||
|--(8)---------------(8)-|--(8)--------------3--||
|------------------------|-------------------1--||
|
|  +Q     Q   E E E   E     +Q     Q   E E Q
|------------------------|----------------------||
|--(6)----6---6-6-----6--|--(6)----6---6-6------||
|--(5)----5---5-5-----5--|--(5)----5---5-5------||
|--(3)----3---3-3-----3--|--(3)----3---3-3------||
|------------------------|----------------------||
|------------------------|----------------------||


  Interlude
   F5VIII     E5VII          G5X                    E5VIIF5VIII
   +H..       E   +H..       E   +H     H      H    Q.   E
    |         |    |         |    |     |      |    |    |
    /         /    /         /    /     /      /    /    /

   +H..       E   +H..       E   +H     H      H    Q.   E
||--------------|--------------|-------------|-------------|
||--------------|--------------|-------------|-------------|
||--------------|--------------|-------------|-------------|
||--------------|--------------|-------------|-------------|
||-(3)--------2-|-(2)--------5-|-(5)----5----|-5----2----3-|
||-(1)--------0-|-(0)--------3-|-(3)----3----|-3----0----1-|


  F5VIII     E5VII          A5open
  +H..       E   +H..       E
   |         |    |         |
   /         /    /         /

  +H..       E   +H..       E
|--------------|-----------------|
|--------------|------------8b10-|
|--------------|-----------------|
|--------------|-----------------|
|-(3)--------2-|-(2)-------------|
|-(1)--------0-|-(0)-------------|


                                                      F5VIII
  +W                              +H..                E
   |                               |                  |
   /                               /                  /

   ~~~                      PM----------------|
      |-3-|         |-3-|          |--3--|
  +E  E E E E   +S  E E E.. S S    E   E E Q  +E   Q  E
|-----5-------------------------|-----------------------|
|-(8)---8p5---------------------|-----------------------|
|-----------7b9r(7)-5h7p5-------|-----------------------|
|---------------------------7p6p|==5--------------------|
|-------------------------------|------7p6------------3-|
|-------------------------------|----------5--(5)\----1-|


  F5VIII     E5VII          G5X                    E5VIIF5VIII
  +H..       E   +H..       E   +H     H      H    Q.   E
   |         |    |         |    |     |      |    |    |
   /         /    /         /    /     /      /    /    /

  +H..       E   +H..       E   +H     H      H    Q.   E
|--------------|--------------|-------------|-------------|
|--------------|--------------|-------------|-------------|
|--------------|--------------|-------------|-------------|
|--------------|--------------|-------------|-------------|
|-(3)--------2-|-(2)--------5-|-(5)----5----|-5----2----3-|
|-(1)--------0-|-(0)--------3-|-(3)----3----|-3----0----1-|


  F5VIII     E5VII          A5open                                   A5open
                                                             Gtr II
  +H..       E   +H..       E       +W              +H..             E
   |         |    |         |        |               |               |
   /         /    /         /        /               /               /

                                                             Gtr I
                                            ~~~~~~~~~~~~~
  +H..       E   +H..       E       +H     +H       +Q.    E  E  q   E
|--------------|------------------|---------------|----------11-10---8-||
|--------------|------------------|---------------|-----------x--x---x-||
|--------------|------------------|---------------|-----------8--7---5-||
|--------------|------------7pb9==|=(7)r===(7)----|-(7)----------------||
|-(3)--------2-|-(2)--------------|---------------|--------------------||
|-(1)--------0-|-(0)--------------|---------------|--------------------||
|
|                                                            Gtrs III, IV
|  W              W                  W               H        E  E E E
|--------------|------------------|---------------|--------------------||
|--------------|------------------|---------------|--------------------||
|--------------|------------------|---------------|--------------------||
|--------------|------------------|---------------|--------------------||
|--------------|------------------|---------------|------------------7-||
|--------------|------------------|---------------|-----------2--3-4-5-||


  Breakdown
   A5open
   +Q.      H       E   W
    |
    /

   +E   E E E E E q     E E  E E  E  q  E
||-(8)--8-8-x-9-------|----------11-10--8-|
||-(x)--x-x-x-x-x-8---|-9-x-10-x--x--x--x-|
||-(5)--5-5-x-6-x-x---|-x-x--x-x--8--7--5-|
||--------------x-5---|-6-x--7-x----------|
||--------------------|-------------------|
||--------------------|-------------------|
|
|  +Q.      H       E   W
||--------------------|-------------------|
||--------------------|-------------------|
||--------------------|-------------------|
||--------------------|-------------------|
||-(7)\---------------|-------------------|
||-(5)\---------------|-------------------|


                                       A5open
   W                 H..               E
                                       |
                                       /

  +E  E E E E E q    E   E  E E  E  q  E
|-(8)-8-8-x-9------|------------11-10--8--|
|-(x)-x-x-x-x-x-8--|-9---x-10-x--x--x--x--|
|-(5)-5-5-x-6-x-x--|-x---x--x-x--8--7--5--|
|-------------x-5--|-6---x--7-x-----------|
|------------------|----------------------|
|------------------|----------------------|
|
|  W                 W
|------------------|----------------------|
|------------------|----------------------|
|------------------|----------------------|
|------------------|----------------------|
|------------------|----------------------|
|------------------|----------------------|


  A5open                                A5open
  +W                 +H..               E
   |                  |                 |
   /                  /                 /

  +E  E E E E E q     E   E  E E  E  q  E
|-(8)-8-8-x-9------|-------------11-10--8-|
|-(x)-x-x-x-x-x-8--|--9---x-10-x--x--x--x-|
|-(5)-5-5-x-6-x-x--|--x---x--x-x--8--7--5-|
|-------------x-5--|--6---x--7-x----------|
|------------------|----------------------|
|------------------|----------------------|
|
|  W                  H..               E
|------------------|----------------------|
|------------------|----------------------|
|------------------|----------------------|
|------------------|--------------------2-|
|------------------|--------------------0-|
|------------------|----------------------|


  +W                 +H..               E
   |                  |
   /                  /

  +E  E E E E E q     E   E  E E  E  q  E
|-(8)-8-8-x-9------|-------------11-10--8-||
|-(x)-x-x-x-x-x-8--|--9---x-10-x--x--x--x-||
|-(5)-5-5-x-6-x-x--|--x---x--x-x--8--7--5-||
|-------------x-5--|--6---x--7-x--------x-||
|------------------|----------------------||
|------------------|----------------------||
|
| +W                 +H..               E
|------------------|----------------------||
|------------------|----------------------||
|------------------|----------------------||
|-(2)--------------|-(2)----------------7-||
|-(0)--------------|-(0)----------------7-||
|------------------|--------------------5-||


  Guitar Solo
   A5                           C5      A5
   +E  E E E E E E E    E E E E  E  q   E
||-(8)-8-8-8-9-x-x---|----------11-10---8-|
||-(x)-x-x-x-x-x-x-8-|-10-x-x----x--x---x-|
||-(5)-5-5-5-6-x-x-x-|--x-x-x----8--7---5-|
||-(x)-x-x-x-x-x-x-5h|==7-x-7----x--x---x-|
||-----------------x-|--x---x-------------|
||-------------------|--------------------|
|
|  +E  E E E E E E E    E E E E  E  E E E
||-------------------|--------------------|
||-------------------|--------------------|
||-------------------|--------------------|
||-(7)---------------|------7----5--5-5-7-|
||-(7)-x-7-x-7-7-x-7-|--7-x-7-x--3--3-3-7-|
||-(5)-x-5-x-5-5-x-5-|--5-x-5-x---------5-|


  +E  E E E q   E E   +E  E E E a     +E  +E  E E
|-(8)-8-8-8-8---x-8-|-(8)-8-8-8----------------------|
|-(x)-x-x-x-x---x-x-|-(x)-x-x-x-7-----(7)-----5-7b8r=|
|-(5)-5-5-5-5---x-5-|-(5)-5-5-x-7pb8==(7)r(7)-5-7b8r=|
|-(x)-x-x-x-x---x-x-|-(x)-x-x-x----------------------|
|-------------------|--------------------------------|
|-------------------|--------------------------------|
|
| +E  E E E E E E E   +E  E E E a     +E  +E  E E
|-------------------|--------------------------------|
|-------------------|--------------------------------|
|-------------------|--------------------------------|
|-(7)---------------|-------7-------------------7----|
|-(7)-x-7-x-7-7-x-7-|-(7)-x-7-x-5pb6==(5)r(5)-3-7----|
|-(5)-x-5-x-5-5-x-5-|-(5)-x-5-x-----------------5----|


  A5                              C5    A5
  Gtr I
              ~                   ~
  +E  E E E E E E E     +E  E E E Q   E  E
|---------------------|-----------------------|
|-(7)-5-7p5-5-7---7b8r|=(7)-5-7p5-5------8----|
|-(7)-5-7p5-5-7---7b8r|=(7)-5-7p5-5-----10b12-|
|---------------------|-----------------------|
|---------------------|-----------------------|
|---------------------|-----------------------|
|
| Gtr V
|  W                     W
|---------------------|-----------------------|
|---------------------|-----------------------|
|---------------------|-----------------------|
|---------------------|-----------------------|
|---------------------|-----------------------|
|---------------------|-----------------------|
|
| Gtrs II, III, IV
|  E  E E E E E E E      E  E E E E E E  E
|---------------------|-----------------------|
|---------------------|-----------------------|
|---------------------|-----------------------|
|--7------------------|-------7---5-5-5--7----|
|--7--x-7-x-7-7-x-7---|--7--x-7-x-3-3-3--7----|
|--5--x-5-x-5-5-x-5---|--5--x-5-x--------5----|


    ~~~~         ~~~               ~~~             ~~~~
   +Q    E E    +Q.     E    E    +Q    E         +Q.        E
|-------------------------|---------------------------------------|
|--(8)-----7----(7)-------|--6----(6)---5---------(5)-------------|
|-(10)-----9b11-(9)-------|--8b10-(8)---7b9-------(7)-------19b20-|
|-------------------------|---------------------------------------|
|-------------------------|---------------------------------------|
|-------------------------|---------------------------------------|
|
|   W                        H..                             E
|-------------------------|---------------------------------------|
|-------------------------|---------------------------------------|
|-------------------------|----------------------------------7b8--|
|-------------------------|---------------------------------------|
|-------------------------|---------------------------------------|
|-------------------------|---------------------------------------|
|
|  +E  E E E     E  E E E   +E     E  E E   a     +E  +E  E  E
|-------------------------|---------------------------------------|
|-------------------------|---------------------------------------|
|-------------------------|---------------------------------------|
|--(7)--------------------|-----------7----------------------7----|
|--(7)-x-7-x-----7--7-x-7-|-(7)----x--7-x---5pb6==(5)r(5)-3--7----|
|--(5)-x-5-x-----5--5-x-5-|-(5)----x--5-x--------------------5----|


  A5                                           C5       A5
   +E   E  E  E  E  E  E  E       +E   E  E  E  E  E  E  E
|------------------------------|------------------------------|
|------17-16h17----------------|------17-16h17----------10----|
|-(19)----------17----17-19b20-|-(19)----------17-------12b14-|
|------------------19----------|------------------19-17-------|
|------------------------------|------------------------------|
|------------------------------|------------------------------|
|
|  +E   E  E  E  E  E  E  E       +E   E  E  E  E  E  E  E
|------------------------------|------------------------------|
|-------5--4h=5----------------|-------5--4h=5----------------|
|--(7)-----------5-----5--7b8--|--(7)-----------5-------------|
|-------------------7----------|-------------------7--5--5b7--|
|------------------------------|------------------------------|
|------------------------------|------------------------------|
|
|   E   E  E  E  E  E  E  E        E   E  E  E  E  E  E  E
|------------------------------|------------------------------|
|------------------------------|------------------------------|
|------------------------------|------------------------------|
|---7--------------------------|----------7-----5--5--5--7----|
|---7---x--7--x--7--7--x--7----|---7---x--7--x--3--3--3--7----|
|---5---x--5--x--5--5--x--5----|---5---x--5--x-----------5----|


    ~~~~           ~~~~
   +Q    E  E     +Q    E  E        +E   E  E  E        Q.        E
|--------------------------------|-------------------------------------|
|-(10)-----13----(13)------------|-------------------------------------|
|-(12)-----15b17-(15)-----19pb20r|=(19)----17----------17\-------19b20-|
|--------------------------------|------19----19-----------------------|
|--------------------------------|-------------------------------------|
|--------------------------------|-------------------------------------|
|
|   ~~~~           ~~~~
|  +Q    E  E     +Q    E  E        +E   E  E  E        Q.        E
|--------------------------------|-------------------------------------|
|--------------------------------|-------------------------------------|
|--------------------------7pb8r=|==(7)-----5-----------5\--------7b8--|
|--(5)------8b10--(8)------------|-------7-----7-----------------------|
|--------------------------------|-------------------------------------|
|--------------------------------|-------------------------------------|
|
|  +E  E E  E      E  E E  E        +E   E  E  E a     +E  +E  E  E
|--------------------------------|-------------------------------------|
|--------------------------------|-------------------------------------|
|--------------------------------|-------------------------------------|
|--(7)---------------------------|----------7---------------------7----|
|--(7)-x-7--x------7--7-x--7-----|--(7)--x--7--x-5pb6==(5)r(5)-3--7----|
|--(5)-x-5--x------5--5-x--5-----|--(5)--x--5--x------------------5----|


  A5open                                      C5      A5
    W                             W
    ~~~~         ~~~                           ~~~
   +E   E  E  E  Q.      E       +E   E  E  E  Q.      E
|-----------------------------|---------17------------------|
|------17-17-17-20------------|------17----17-20------20b22-|
|-(19)------------------19b21-|-(19)------------------------|
|-----------------------------|-----------------------------|
|-----------------------------|-----------------------------|
|-----------------------------|-----------------------------|
|
|   ~~~~         ~~~                           ~~~
|  +E   E  E  E  Q.      E       +E   E  E  E  Q.      E
|-----------------------------|----------5------------------|
|-------5--5--5--8------------|-------5-----5--8-------8b10-|
|--(7)-------------------7b9--|--(7)------------------------|
|-----------------------------|-----------------------------|
|-----------------------------|-----------------------------|
|-----------------------------|-----------------------------|
|
|   E   E  E  E  E  E E  E        E   E  E  E  E  E E  E
|-----------------------------|-----------------------------|
|-----------------------------|-----------------------------|
|-----------------------------|-----------------------------|
|---7-------------------------|----------7-----5--5-5--7----|
|---7---x--7--x--7--7-x--7----|---7---x--7--x--3--3-3--7----|
|---5---x--5--x--5--5-x--5----|---5---x--5--x----------5----|


                                                                   D5V
                                                                   Gtr II
    W                               H..                            E
                                                                   |
                                                                   /

                                                                   Gtr I
    ~~~~           ~~~~             ~~~~~                 ~~~~~
   +Q.      E     +Q.      E       +Q.       E           +Q.       E
|----------19b20-(19)-----20b22-|-(20)------22b24-------(22)---------||
|-(20)--------------------------|------------------------------------||
|-------------------------------|----------------------------------7-||
|-------------------------------|----------------------------------7-||
|-------------------------------|----------------------------------5-||
|-------------------------------|------------------------------------||
|
|   ~~~~           ~~~~             ~~~~~                 ~~~~~
|  +Q.      E     +Q.      E       +Q.       E           +Q.       E
|-----------7b8---(7)------8b10-|--(8)------10b12-------(10)---------||
|--(8)--------------------------|------------------------------------||
|-------------------------------|------------------------------------||
|-------------------------------|------------------------------------||
|-------------------------------|------------------------------------||
|-------------------------------|------------------------------------||
|
|                                                                  Gtrs III, IV
|  +E  E E  E      E  E E  E       +E   E E  E    a      +E  +E  E E
|-------------------------------|------------------------------------||
|-------------------------------|------------------------------------||
|-------------------------------|----------------------------------7-||
|--(7)--------------------------|---------7------------------------7-||
|--(7)-x-7--x------7--7-x--7----|--(7)--x-7--x----5pb6===(5)r(5)-3-5-||
|--(5)-x-5--x------5--5-x--5----|--(5)--x-5--x-----------------------||


  Chorus
   D5V              D5V                  D5V
   Gtr II
   +E   E E E E E E E   +E   E E E E E E E
    |   | | | | | | |    |   | | | | | | |
    /   / / / / / / /    /   / / / / / / /

   Gtr I
   +H..             E   +H..             E
||--------------------|--------------------|
||--------------------|--------------------|
||-(7)--------------3-|-(3)--------------5-|
||-(7)--------------3-|-(3)--------------5-|
||-(5)--------------1-|-(1)--------------3-|
||--------------------|--------------------|
|
|  Gtrs III, IV
|  +Q     Q   E E E E   +Q     Q   E E E E
||--------------------|--------------------|
||--------------------|--------------------|
||-(7)----7---7-7---7-|-(7)----7---7-7---7-|
||-(7)----7---7-7---7-|-(7)----7---7-7---7-|
||-(5)----5---5-5---5-|-(5)----5---5-5---5-|
||--------------------|--------------------|


                   G5X                  D5V
  +E   E E E E E E E   +E   E E E E E E E
   |   | | | | | | |    |   | | | | | | |
   /   / / / / / / /    /   / / / / / / /

  +H..             E   +H..             E
|--------------------|--------------------|
|--------------------|--------------------|
|-(5)----------------|------------------7-|
|-(5)--------------5-|-(5)--------------7-|
|-(3)--------------5-|-(5)--------------5-|
|------------------3-|-(3)----------------|
|
| +Q     Q   E E E E   +Q     Q   E E E E
|--------------------|--------------------|
|------------------8-|-(8)----8---8-8-----|
|-(7)----7---7-7---7-|-(7)----7---7-7---7-|
|-(7)----7---7-7---5-|-(5)----5---5-5---7-|
|-(5)----5---5-5-----|------------------5-|
|--------------------|--------------------|


  D5V              D5V                  G5X
  +E   E E E E E E E   +E   E E E E E E E
   |   | | | | | | |    |   | | | | | | |
   /   / / / / / / /    /   / / / / / / /

  +H..             E   +H..             E
|--------------------|--------------------|
|--------------------|--------------------|
|-(7)--------------3-|-(3)----------------|
|-(7)--------------3-|-(3)--------------5-|
|-(5)--------------1-|-(1)--------------5-|
|--------------------|------------------3-|
|
| +Q     Q   E E E E   +Q     Q   E E E E
|--------------------|--------------------|
|--------------------|------------------8-|
|-(7)----7---7-7---7-|-(7)----7---7-7---7-|
|-(7)----7---7-7---7-|-(7)----7---7-7---5-|
|-(5)----5---5-5---5-|-(5)----5---5-5-----|
|--------------------|--------------------|


                   C5X                       D5V
  +E   E E E E E E  E    +E   E  E E  E  E E E
   |   | | | | | |  |     |   |  | |  |  | | |
   /   / / / / / /  /     /   /  / /  /  / / /

  +H..              E    +H..                E
|---------------------|-------------------------||
|---------------------|-------------------------||
|-------------------5-|--(5)-----------------7--||
|-(5)---------------5-|--(5)-----------------7--||
|-(5)---------------3-|--(3)-----------------5--||
|-(3)-----------------|-------------------------||
|
| +Q     Q   E E E  E    +Q      Q    E  E E E
|---------------------|-------------------------||
|-(8)----8---8-8---13-|-(13)----13---13-13------||
|-(7)----7---7-7---12-|-(12)----12---12-12---7--||
|-(5)----5---5-5---10-|-(10)----10---10-10---7--||
|---------------------|----------------------5--||
|---------------------|-------------------------||


   D5V              D5V                  D5V
   +E   E E E E E E E   +E   E E E E E E E
    |   | | | | | | |    |   | | | | | | |
    /   / / / / / / /    /   / / / / / / /

   +H..             E   +H..             E
||--------------------|--------------------|
||--------------------|--------------------|
||-(7)--------------3-|-(3)--------------5-|
||-(7)--------------3-|-(3)--------------5-|
||-(5)--------------1-|-(1)--------------3-|
||--------------------|--------------------|
|
|  +Q     Q   E E E E   +Q     Q   E E E E
||--------------------|--------------------|
||--------------------|--------------------|
||-(7)----7---7-7---7-|-(7)----7---7-7---7-|
||-(7)----7---7-7---7-|-(7)----7---7-7---7-|
||-(5)----5---5-5---5-|-(5)----5---5-5---5-|
||--------------------|--------------------|


                   G5X
  +E   E E E E E E E   +E   E E E E E E E
   |   | | | | | | |    |   | | | | | | |
   /   / / / / / / /    /   / / / / / / /

  +H..             E   +H..             E
|--------------------|--------------------|
|--------------------|--------------------|
|-(5)----------------|------------------7-|
|-(5)--------------5-|-(5)--------------7-|
|-(3)--------------5-|-(5)--------------5-|
|------------------3-|-(3)----------------|
|
| +Q     Q   E E E E   +Q     Q   E E E E
|--------------------|--------------------|
|------------------8-|-(8)----8---8-8-----|
|-(7)----7---7-7---7-|-(7)----7---7-7---7-|
|-(7)----7---7-7---5-|-(5)----5---5-5---7-|
|-(5)----5---5-5-----|------------------5-|
|--------------------|--------------------|


  D5V              D5V                  F5I
  Gtr II
  +E   E E E E E E E   +E   E E E E E E  E    +E  E E E E  E  E  E
   |   | | | | | | |    |   | | | | | |  |     |  | | | |  |  |  |
   /   / / / / / / /    /   / / / / / /  /     /  / / / /  /  /  /

  Gtr I
  +H..             E   +H..              E    +W
|--------------------|---------------------|--------------------------------|
|--------------------|---------------------|--------------------------------|
|-(7)--------------3-|-(3)--------------10-|-(10)---------------------------|
|-(7)--------------3-|-(3)--------------10-|-(10)---------------------------|
|-(5)--------------1-|-(1)---------------8-|--(8)---------------------------|
|--------------------|---------------------|--------------------------------|
|
| Gtr V
|  W                    W                      H        E  E  E  S      +S
|--------------------|---------------------|--------------13----------------|
|--------------------|---------------------|-----------------13-------------|
|--------------------|---------------------|--------------------12pb14r(12)-|
|--------------------|---------------------|--------------------------------|
|--------------------|---------------------|--------------------------------|
|--------------------|---------------------|--------------------------------|
|
| Gtrs III, IV
| +Q     Q   E E E E   +Q     Q   E E E  E    +Q    Q   E  E  E  E
|--------------------|---------------------|--------------------------------|
|--------------------|-------------------6-|--(6)---6---6--6-----6----------|
|-(7)----7---7-7---7-|-(7)----7---7-7----5-|--(5)---5---5--5-----5----------|
|-(7)----7---7-7---7-|-(7)----7---7-7----3-|--(3)---3---3--3-----3----------|
|-(5)----5---5-5---5-|-(5)----5---5-5------|--------------------------------|
|--------------------|---------------------|--------------------------------|


                                            D5V
   +E    E  E           E  E  E           E  E
    |    |  |           |  |  |           |  |
    /    /  /           /  /  /           /  /

   +H..                                      E
|--------------------------------------------------||
|--------------------------------------------------||
|-(10)---------------------------------------7-----||
|-(10)---------------------------------------7-----||
|--(8)---------------------------------------5-----||
|--------------------------------------------------||
|
|   E    E  S      +S   E  E  S      +S   E  E
|--13------------------13-------------------10-----||
|-------13----------------13----------------13b15==||
|----------12pb14r(12)-------12pb14r(12)-10--------||
|--------------------------------------------------||
|--------------------------------------------------||
|--------------------------------------------------||
|
|  +Q       Q              E  E           E  E
|--------------------------------------------------||
|--(6)------6--------------6--6--------------------||
|--(5)------5--------------5--5--------------7-----||
|--(3)------3--------------3--3--------------7-----||
|--------------------------------------------5-----||
|--------------------------------------------------||


   D5V                  D5V                           D5V
    +E   E  E E  E  E E  E        +E   E  E E  E  E E  E
     |   |  | |  |  | |  |         |   |  | |  |  | |  |
     /   /  / /  /  / /  /         /   /  / /  /  / /  /

    +H..                 E        +H..                 E
||-----------------------------|-----------------------------|
||-----------------------------|-----------------------------|
||--(7)------------------3-----|--(3)------------------5-----|
||--(7)------------------3-----|--(3)------------------5-----|
||--(5)------------------1-----|--(1)------------------3-----|
||-----------------------------|-----------------------------|
|
|                ~~~                           ~~~
|   +Q      Q    Q.      E        +Q      Q    Q.      E
||-(10)----10---10------10-----|-(10)----10---10------10-----|
||-(13)----13---13r-----13b15==|=(13)----13---13r-----13b15==|
||-----------------------------|-----------------------------|
||-----------------------------|-----------------------------|
||-----------------------------|-----------------------------|
||-----------------------------|-----------------------------|
|
|   +Q      Q    E  E E  E        +Q      Q    E  E E  E
||-----------------------------|-----------------------------|
||-----------------------------|-----------------------------|
||--(7)-----7----7--7----7-----|--(7)-----7----7--7----7-----|
||--(7)-----7----7--7----7-----|--(7)-----7----7--7----7-----|
||--(5)-----5----5--5----5-----|--(5)-----5----5--5----5-----|
||-----------------------------|-----------------------------|


                       G5X                           D5V
   +E   E  E E  E  E E  E        +E   E  E E  E  E E  E
    |   |  | |  |  | |  |         |   |  | |  |  | |  |
    /   /  / /  /  / /  /         /   /  / /  /  / /  /

   +H..                 E        +H..                 E
|-----------------------------|-----------------------------|
|-----------------------------|-----------------------------|
|--(5)------------------------|-----------------------7-----|
|--(5)------------------5-----|--(5)------------------7-----|
|--(3)------------------5-----|--(5)------------------5-----|
|-----------------------3-----|--(3)------------------------|
|
|               ~~~                           ~~~
|  +Q      Q    Q.      E        +Q      Q    Q.      E
|-(10)----10---10------10-----|-(10)----10---10------10-----|
|-(13)----13---13r-----13b15==|=(13)----13---13r-----13b15==|
|-----------------------------|-----------------------------|
|-----------------------------|-----------------------------|
|-----------------------------|-----------------------------|
|-----------------------------|-----------------------------|
|
|  +Q      Q    E  E E  E        +Q      Q    E  E E  E
|-----------------------------|-----------------------------|
|-----------------------8-----|--(8)-----8----8--8----------|
|--(7)-----7----7--7----7-----|--(7)-----7----7--7----7-----|
|--(7)-----7----7--7----5-----|--(5)-----5----5--5----7-----|
|--(5)-----5----5--5----------|-----------------------5-----|
|-----------------------------|-----------------------------|


  D5V                  D5V                           G5X
   +E   E  E E  E  E E  E        +E   E  E E  E  E E  E
    |   |  | |  |  | |  |         |   |  | |  |  | |  |
    /   /  / /  /  / /  /         /   /  / /  /  / /  /

   +H..                 E        +H..                 E
|-----------------------------|-----------------------------|
|-----------------------------|-----------------------------|
|--(7)------------------3-----|--(3)------------------------|
|--(7)------------------3-----|--(3)------------------5-----|
|--(5)------------------1-----|--(1)------------------5-----|
|-----------------------------|-----------------------3-----|
|
|               ~~~                           ~~~
|  +Q      Q    Q.      E        +Q      Q    Q.      E
|-(10)----10---10------10-----|-(10)----10---10------10-----|
|-(13)----13---13r-----13b15==|=(13)----13---13r-----13b15==|
|-----------------------------|-----------------------------|
|-----------------------------|-----------------------------|
|-----------------------------|-----------------------------|
|-----------------------------|-----------------------------|
|
|  +Q      Q    E  E E  E        +Q      Q    E  E E  E
|-----------------------------|-----------------------------|
|-----------------------------|-----------------------8-----|
|--(7)-----7----7--7----7-----|--(7)-----7----7--7----7-----|
|--(7)-----7----7--7----7-----|--(7)-----7----7--7----5-----|
|--(5)-----5----5--5----5-----|--(5)-----5----5--5----------|
|-----------------------------|-----------------------------|


                       C5X                            D5V
   +E   E  E E  E  E E  E        +E   E  E E  E   E E  E
    |   |  | |  |  | |  |         |   |  | |  |   | |  |
    /   /  / /  /  / /  /         /   /  / /  /   / /  /

   +H..                 E        +H..                  E
|-----------------------------|-------------------------------||
|-----------------------------|-------------------------------||
|-----------------------5-----|--(5)-------------------7------||
|--(5)------------------5-----|--(5)-------------------7------||
|--(5)------------------3-----|--(3)-------------------5------||
|--(3)------------------------|-------------------------------||
|
|               ~~~                           ~~~
|  +Q      Q    Q.      E        +Q      Q    Q.       E
|-(10)----10---10------10-----|-(10)----10---10---------------||
|-(13)----13---13r-----13b15==|=(13)----13---13r------10------||
|-----------------------------|-----------------------12b14===||
|-----------------------------|-------------------------------||
|-----------------------------|-------------------------------||
|-----------------------------|-------------------------------||
|
|  +Q      Q    E  E E  E        +Q      Q    E   E E  E
|-----------------------------|-------------------------------||
|--(8)-----8----8--8---13-----|-(13)----13---13--13-----------||
|--(7)-----7----7--7---12-----|-(12)----12---12--12----7------||
|--(5)-----5----5--5---10-----|-(10)----10---10--10----7------||
|-----------------------------|------------------------5------||
|-----------------------------|-------------------------------||


   D5V                   D5V                            D5V
    +E   E E E   E   E E  E        +E   E E E   E   E E  E
     |   | | |   |   | |  |         |   | | |   |   | |  |
     /   / / /   /   / /  /         /   / / /   /   / /  /

    +H..                  E        +H..                  E
||------------------------------|------------------------------|
||------------------------------|------------------------------|
||--(7)-------------------3-----|--(3)-------------------5-----|
||--(7)-------------------3-----|--(3)-------------------5-----|
||--(5)-------------------1-----|--(1)-------------------3-----|
||------------------------------|------------------------------|
|
|                ~~~~~                          ~~~~~
|   +H          +Q.       E        +H          +Q.       E
||------------------------------|------------------------------|
||-(10)--------(10)------11-----|-(11)--------(11)------13-----|
||-(12)--------(12)r-----13b15==|=(13)--------(13)r-----15b17==|
||------------------------------|------------------------------|
||------------------------------|------------------------------|
||------------------------------|------------------------------|
|
|   +Q     Q     E   E E  E        +Q     Q     E   E E  E
||------------------------------|------------------------------|
||------------------------------|------------------------------|
||--(7)----7-----7---7----7-----|--(7)----7-----7---7----7-----|
||--(7)----7-----7---7----7-----|--(7)----7-----7---7----7-----|
||--(5)----5-----5---5----5-----|--(5)----5-----5---5----5-----|
||------------------------------|------------------------------|


                        G5X                            D5V
   +E   E E E   E   E E  E        +E   E E E   E   E E  E
    |   | | |   |   | |  |         |   | | |   |   | |  |
    /   / / /   /   / /  /         /   / / /   /   / /  /

   +H..                  E        +H..                  E
|------------------------------|------------------------------|
|------------------------------|------------------------------|
|--(5)-------------------------|------------------------7-----|
|--(5)-------------------5-----|--(5)-------------------7-----|
|--(3)-------------------5-----|--(5)-------------------5-----|
|------------------------3-----|--(3)-------------------------|
|
|               ~~~~~                          ~~~~~
|  +H          +Q.       E        +H          +Q.       E
|------------------------------|------------------------------|
|-(13)--------(13)------12-----|-(12)--------(12)------10-----|
|-(15)--------(15)r-----14b16==|=(14)--------(14)r-----12b14==|
|------------------------------|------------------------------|
|------------------------------|------------------------------|
|------------------------------|------------------------------|
|
|  +Q     Q     E   E E  E        +Q     Q     E   E E  E
|------------------------------|------------------------------|
|------------------------8-----|--(8)----8-----8---8----------|
|--(7)----7-----7---7----7-----|--(7)----7-----7---7----7-----|
|--(7)----7-----7---7----5-----|--(5)----5-----5---5----7-----|
|--(5)----5-----5---5----------|------------------------5-----|
|------------------------------|------------------------------|


  D5V                    D5V                        F5I
   +E   E E E   E    E E  E    +E   E E E E E   E    E
    |   | | |   |    | |  |     |   | | | | |   |    |
    /   / / /   /    / /  /     /   / / / / /   /    /

   +H..                   E    +H..                  E
|---------------------------|------------------------------|
|---------------------------|------------------------------|
|--(7)--------------------3-|--(3)------------------10-----|
|--(7)--------------------3-|--(3)------------------10-----|
|--(5)--------------------1-|--(1)-------------------8-----|
|---------------------------|------------------------------|
|
|                               ~~~~~~~~~~~~~~~~~~~~
|  +H          +Q.        E    +H.             +E    E
|---------------------------|-----------------------13-----|
|-(10)--------(10)----------|-----------------------16b18==|
|-(12)--------(12)r\--------|------------------------------|
|------------------------12-|-(12)------------(12)\--------|
|------------------------12-|-(12)------------(12)\--------|
|---------------------------|------------------------------|
|
|  +Q     Q     E    E E  E    +Q     Q   E E   E    E
|---------------------------|------------------------------|
|---------------------------|------------------------6-----|
|--(7)----7-----7----7----7-|--(7)----7---7-7--------5-----|
|--(7)----7-----7----7----7-|--(7)----7---7-7--------3-----|
|--(5)----5-----5----5----5-|--(5)----5---5-5--------------|
|---------------------------|------------------------------|


                                             F5I
   +E  E E E E E E E    +E   E E E   E   E E E
    |  | | | | | | |     |   | | |   |   | |
    /  / / / / / / /     /   / / /   /   / /

                                             Gtrs I, II, III, IV, V
   +W                   +H..                 E
|--------------------|--------------------------||
|--------------------|--------------------------||
|-(10)---------------|-(10)---------------------||
|-(10)---------------|-(10)------------------3--||
|--(8)---------------|--(8)------------------3--||
|--------------------|-----------------------1--||
|
|                        ~~~~~~~~~~~~~~~~
|  +W                   +H          +Q.      E
|-(13)---------------|-(13)--------(13)---------||
|-(16)---------------|-(16)--------(16)r--------||
|--------------------|--------------------------||
|--------------------|--------------------------||
|--------------------|--------------------------||
|--------------------|--------------------------||
|
|  +Q    Q   E E E E    +Q     Q     E   E Q
|--------------------|--------------------------||
|--(6)---6---6-6---6-|--(6)----6-----6---6------||
|--(5)---5---5-5---5-|--(5)----5-----5---5------||
|--(3)---3---3-3---3-|--(3)----3-----3---3------||
|--------------------|--------------------------||
|--------------------|--------------------------||


   Outro
    F5                          Bb5   F5
    Gtrs I, II, III, IV
    +E  E E E E E E E   E E E E E E E E
||--------------------|-----------------|
||o-------------------|-----------------|
||--------------------|-----------------|
||--(3)---3-------3---|-----3---3-3-3-3-|
||o-(3)-3-3-3-3-3-3-3-|-3-3-3-3-1-1-1-3-|
||--(1)-1-1-1-0h1-1-1-|-0h1-1-1-------1-|


                     1.
                              Bb5
  +E  E E E E E E E   E E E E E E E E
|-------------------|-------------------||
|-------------------|------------------o||
|-------------------|-------------------||
|-(3)---3-------3---|-----3---3-3-3-3---||
|-(3)-3-3-3-3-3-3-3-|-3-3-3-3-1-1-1-3--o||
|-(1)-1-1-1-0h1-1-1-|-0h1-1-1-------1---||


   2.
           Bb5   A5
   E E E E E E E E   +W           +W           +W
||---------------0-|-(0)--------|-(0)--------|-(0)----|
||---------------2-|-(2)--------|-(2)--------|-(2)----|
||-----------------|------------|------------|--------|
||-----3---3-3-3-2-|-(2)--------|-(2)--------|-(2)----|
||-3-3-3-3-1-1-1-0-|-(0)--------|-(0)--------|-(0)----|
||-0h1-1-1---------|------------|------------|--------|


  A5
  +W           +W           +W           +W           +W
|-(0)--------|-(0)--------|-(0)--------|-(0)--------|-(0)----*|
|-(2)--------|-(2)--------|-(2)--------|-(2)--------|-(2)----*|
|------------|------------|------------|------------|--------*|
|-(2)--------|-(2)--------|-(2)--------|-(2)--------|-(2)----*|
|-(0)--------|-(0)--------|-(0)--------|-(0)--------|-(0)----*|
|------------|------------|------------|------------|--------*|


Duration Legend
---------------
W - whole; H - half; Q - quarter; E - 8th; S - 16th; T - 32nd; X - 64th; a - acciaccatura
+ - note tied to previous; . - note dotted; .. - note double dotted
Uncapitalized letters represent notes that are staccato (1/2 duration)
Irregular groupings are notated above the duration line
Duration letters will always appear directly above the note/fret number it represents the
duration for.  Duration letters with no fret number below them represent rests.  Multi-
bar rests are notated in the form Wxn, where n is the number of bars to rest for.  Low
melody durations appear below the staff

Tablature Legend
----------------
 h   - hammer-on
 p   - pull-off
 b   - bend
 pb  - pre-bend
 r   - bend release (if no number after the r, then release immediately)
 /\  - slide into or out of (from/to "nowhere")
 s   - legato slide
 S   - shift slide
  - natural harmonic
[n]  - artificial harmonic
n(n) - tapped harmonic
 ~   - vibrato
 tr  - trill
 T   - tap
 TP  - trem. picking
 PM  - palm muting
\n/  - tremolo bar dip; n = amount to dip
 \n  - tremolo bar down
 n/  - tremolo bar up
/n\  - tremolo bar inverted dip
 =   - hold bend; also acts as connecting device for hammers/pulls
 <>  - volume swell (louder/softer)
 x   - on rhythm slash represents muted slash
 o   - on rhythm slash represents single note slash

Misc Legend
-----------
 |  - bar
||  - double bar
||o - repeat start
o|| - repeat end
*|  - double bar (ending)
 :  - bar (freetime)
 $  - Segno
 &  - Coda
Tempo markers -  = BPM(8/16=s8/s16), where s8 = swing 8ths, s16 = swing 16ths


***************************************************************************************
* Generated using Power Tab Editor by Brad Larsen - http://powertab.guitarnetwork.org *
***************************************************************************************
comments
We did not receive enough feedback on this tab! Please rate:
print report bad tab
1 2 3 4 5
I want to post or [tab]
guest
You may want to rate the tab now too:
select rating
Please do not post tabs as comments. Select "correction" instead!