Oops, an error
Loading. Please wait.

Set Me Free Tab

ver2
ver2

Whole song

Interactive

More versions @911Tabs.com
2,159 views 1 this week
1 commentread comment
1 2 3 4 5
accurate
x 7
Autoscroll
+/-
esc
set tempo
stop
WARNING: You are trying to view
                                    content from Ultimate-Guitar.com
                                    in an unauthorized application,
                                    which is prohibited.

                                    Please use an official Ultimate
                                    Guitar Tabs application for iPhone,
                                    iPad or Android to access legitimate
                                    chords, guitar, bass, and drum tabs
                                    from Ultimate-Guitar.com database.

                                    Type "ultimate guitar tabs" in Apple
                                    App Store's or Android Market's
                                    search to find the application.
Artist: Velvet Revolver
Song: Set Me Free
Tabber: Axl Wendt
Email: Alex_dritdeilig@hotmail.com
You must rate if you been tried

Tuning Eb Ab Db Gb Bb eb

Intro: Guitar 1
eb|---------------11-\10---x--8-----8--8----9------------------|
Bb|----------------x-\-x---x--x-----x--x----x----8-----9---10--|
Gb|--x--x-x-x--x---8-\-7---x--5-----5--5----6----x-----x----x--|
Db|--x--x-x-x--x---------------------------------5-----6----7--|
Ab|--x--x-x-x--x-----------------------------------------------|
Eb|------------------------------------------------------------|
  |
eb|-11-\10--x--8--------------------------------------|
Bb|--x---x--x--x--------------------------------------|
Gb|--8-\-7--x--5--------------------------------------|
Db|---------------------------------------------------|
Ab|---------------------------------------------------|
Eb|---------------------------------------------------|

       Guitar 2
eb|------------------------------------------5---5-5-5-5-5~-|
Bb|------------------------------------------5---5-5-5-5-5~-|
Gb|---------------------------2~----------------------------|
Db|---------------------------2~----------------------------|
Ab|---------------------------0~----------------------------|
Eb|------------------17-\-----------------------------------|
  |
eb|--------------------------5--5-5-5-5-5----------------|
Bb|--------------------------5--5-5-5-5-5----------------|
Gb|---2~-------------------------------------------------|
Db|---2~-------------------------------------------------|
Ab|---0~-----------------------------------------------0-|
Eb|---------------------------------------------14-\-----|

Fill: Guitar 1
eb|-------------------11--\--10----------------|
Bb|--9-\-8---10--------x--\---x----------------|
Gb|--x---x----x--------8--\---7----------------|
Db|--6-\-5----7--------------------------------|
Ab|---------------------------------------0----|
Eb|--------------------------------------------|

Guitars 1 and 2
eb|----------------------------------------------------------------|
Bb|----------------------------------------------------------------|
Gb|----------------------------------------------------------------|
Db|----------------------------------------------------------------|
Ab|--(0)---0----3---3---4---4--------------------------5^----3---0-|
Eb|-----------------------------3---3---4---4---5---5--------------|

Verse: Guitar 1
eb|---------------------------------------------------|
Bb|---------------------------------------------------|
Gb|---------------------------------------------------|
Db|---------------------------------------------------|
Ab|--(0)----------------------------------------------|
Eb|---------------------------------------------------|
       Guitar 2
eb|---------------------------------------------------|
Bb|---------------------------------------------------|
Gb|---------------------------------------------------|
Db|--------9--------9--------9---------9--------------|
Ab|--(0)----------------------------------7-----------|
Eb|---------------------------------------------------|
  | pm    ...........................................
  |
eb|---------------------------------------------------|
Bb|---------------------------------------------------|
Gb|---x------x--x--x-----x------x---------------------|
Db|---x------x--x--x-----x------x---------------------|
Ab|---x------x--x--x-----x------x-----0---------------|
Eb|---------------------------------------------------|

Chorus: Gtrs 1 & 2
eb|-------------------------6-------------------------8----|
Bb|--(7)--------------------6-------------------------8----|
Gb|--(7)--------------------7-------------------------9----|
Db|--(7)---0--0--0--0--0----8-------0---0--0--0--0---10----|
Ab|--(5)--------------------8------------------------10----|
Eb|-------------------------6-------------------------8----|

eb|------------------------------------------------------------|
Bb|---------------------12-------------------7-----------------|
Gb|---------------------12-------------------7-----------------|
Db|--0--0--0--0--0--0---12---0--0--0--0--0---7---0--0--0--0--0-|
Ab|---------------------10-------------------5-----------------|
Eb|------------------------------------------------------------|

eb|--6----------------------------------------------------------|
Bb|--6----------------------------------------------------------|
Gb|--7-------------------10----10-10-10-10-10-10-10-10-10-10-10-|
Db|--8----0--0--0--0--0--10----10-10-10-10-10-10-10-10-10-10-10-|
Ab|--8--------------------8-----8--8--8--8--8--8--8--8--8--8--8-|
Eb|--6----------------------------------------------------------|

eb|---------------------------------------------------|
Bb|---------------------------------------------------|
Gb|--9---9---9----------------------------------------|
Db|--9---9---9----------------------------------------|
Ab|--7---7---7----0-----------------------------------|
Eb|---------------------------------------------------|

Fill 2: Guitar 1
eb|---------------11--\--10-----------------|
Bb|--9-----10------x------x-------7---------|
Gb|--x------x------8---\--7-------7---------|
Db|--6------7---------------------7---------|
Ab|-------------------------------5---------|
Eb|-----------------------------------------|

Fill 3: Guitar 2
eb|-----------------------------------------|
Bb|----------------------------------7------|
Gb|----------------------------------7------|
Db|----------------------------------7------|
Ab|-----------------5^-------3-------5------|
Eb|--4---4---5----5-------------------------|

Fill 4: Gtrs 1 & 2
eb|----------------------------1-----------------------|
Bb|----------------------------1-----------------------|
Gb|-10--10--10--10--10---------2-----------------------|
Db|-10--10--10--10--10---------3-----------------------|
Ab|--8---8---8---8---8---------3-----------------------|
Eb|----------------------------1-----------------------|

Bridge: Gtrs 1 & 2
eb|-(1)-------0--------3-----------3--------0-------1------0--|
Bb|-(1)-------0--------3-----------3--------0-------1------0--|
Gb|-(2)-------1--------4-----------4--------1-------2------1--|
Db|-(3)-------2--------5-----------5--------2-------3------2--|
Ab|-(3)-------2--------5-----------5--------2-------3------2--|
Eb|-(1)-------0--------3-----------3--------0-------1------0--|

Bridge: continued  (Guitar 1)
eb|-----------------------------------------------1----|
Bb|-----------------------------------------------1----|
Gb|--2-----2-2--2---2--2--2--2--2---2--2--2--2----2----|
Db|--2-----2-2--2---2--2--2--2--2---2--2--2--2----3----|
Ab|--0-----0-0--0---0--0--0--0--0---0--0--0--0----3----|
Eb|-----------------------------------------------1----|
   Guitar 2
eb|---------5------------------------------------------|
Bb|--8^--------8p5-------------------------------------|
Gb|-----------------7^-h5-7-5--------------------------|
Db|---------------------------7-5----------------------|
Ab|-------------------------------7-6p5-7-6-5-3--------|
Eb|---------------------------------------------5\-----|

Bridge: Guitar 1 continued
eb|--1--1--1--1--1--1--0-----0--0--0--0--0------------------------|
Bb|--1--1--1--1--1--1--0-----1--0--0--0--0------------------------|
Gb|--2--2--2--2--2--2--1-----2--1--1--1--1---12---12-12-12-12-----|
Db|--3--3--3--3--3--3--2-----2--2--2--2--2---12---12-12-12-12--12-|
Ab|--3--3--3--3--3--3--2-----2--2--2--2--2---10---10-10-10-10---9-|
Eb|--1--1--1--1--1--1--0-----0--0--0--0--0------------------------|

   Guitar 2: continued
eb|----------------------------11-\10--x---8--------------|
Bb|-----------------------------x---x--x---x--------------|
Gb|--2^-----------x----x-x------8-\-7--x---5--------------|
Db|---------------x----x-x--------------------------------|
Ab|---------------x----x-x--------------------------------|
Eb|-------------------------------------------------------|

Bridge: Guitar 1 continued
eb|--1----1--1--1--1--1--0-----0--0--0--0-------------------------------|
Bb|--1----1--1--1--1--1--0-----0--0--0--0-------------------------------|
Gb|--2----2--2--2--2--2--1-----1--1--1--1-------------------------------|
Db|--3----3--3--3--3--3--2-----2--2--2--2-----------------------------7-|
Ab|--3----3--3--3--3--3--2-----2--2--2--2--0---0-0-0-0-0-0-0-0--------7-|
Eb|--1----1--1--1--1--1--0-----0--0--0--0----------------------3-3-3--5-|

Interlude: Guitar 2
eb|----------------(5)--------------------------------------------------------||
Bb|----------------(5)--------------------------------------------------------||
Gb|---------------------------------------------------------------------------||o
Db|---(7)\--------------------------------------------------------------------||o
Ab|---(7)\---------------0-0-0-0-0-0-0-0-0-0-0-3-3--0--0-0-0-0-0-0-0-0-5^-3-0-||
Eb|---(5)\--------------------------------------------------------------------||
 
  Guitar 1
eb|--8-8---8-8--------------------------8-----8-8---8-8---8-8-8-8-------------|
Bb|--x-x---x-x---8-/10---10----10-10----x-----x-x---x-x---x-x-x-x-------------|
Gb|--5-5---5-5---x---x----x-----x--x----5-----5-5---5-5---5-5-5-5-7^----7^----|
Db|--------------5-/-7----7-----7--7------------------------------------------|
Ab|---------------------------------------------------------------------------|
Eb|---------------------------------------------------------------------------|
  
  Guitar 2: continued
eb|---------------------------------------------------------------------------|
Bb|---------------------------------------8--------7-------6-----5------------|
Gb|--5--7-----5--7---7^----5--7-----5----10^-------9^------8^----7^-----20----|
Db|--------7---------------------7--------------------------------------------|
Ab|---------------------------------------------------------------------------|
Eb|---------------------------------------------------------------------------|
  
  Guitar 2: continued
eb|----------------------------------------------------------------------|
Bb|--17----17---------------17------17-----------------------------------|
Gb|-----20----17--------20------20-----17------------17---19^-----19-17--|
Db|--------------19--17-------------------19-17-19-----------------------|
Ab|----------------------------------------------------------------------|
Eb|----------------------------------------------------------------------|
  
  Guitar 2: continued
eb|------------------------------------------------17-------------18^---20^-|
Bb|---------------------------20--20--20--------17---17---------------------|
Gb|-----19-17----19^-(19)----------------19^------------20---20^------------|
Db|--19-------19------------------------------------------------------------|
Ab|-------------------------------------------------------------------------|
Eb|-------------------------------------------------------------------------|

  Guitar 2: continued
eb|----------22^--------------------|
Bb|---------------------------7-----|
Gb|---------------------------7-----|
Db|---------------------------7-----|
Ab|-0--0--0------0--0--0--0---5-----|
Eb|---------------------------------|

Coda:
eb|---10---------10----------10-------10---------10---------15--------10--|
Bb|---13^--------13^---------13^------13^--------13^--------18^-------13^-|
Gb|-----------------------------------------------------------------------|
Db|-----------------------------------------------------------------------|
Ab|-----------------------------------------------------------------------|
Eb|-----------------------------------------------------------------------|

eb|--10--------------------10------10-------------------------------------------|
Bb|--13^--^--^--^--^--^----13^-----13^--^-^-^-^-^-^--10----11----13----12---10--|
Gb|--------------------------------------------------12^---13^---15^---14^--12^-|
Db|-----------------------------------------------------------------------------|
Ab|-----------------------------------------------------------------------------|
Eb|-----------------------------------------------------------------------------|

Fill 3: Guitar 1
eb|----------13---------13---------13-----------------10------|
Bb|-------------13----------13-------13------------7/-13^-----|
Gb|--12^-----------12^--------12^-------12^---10---7/---------|
Db|------------------------------------------------7/---------|
Ab|------------------------------------------------5/---------|
Eb|-----------------------------------------------------------|

Fill 4: Guitar 2
eb|--------------------------------|
Bb|---------------------------7----|
Gb|-10-10-10-10-10-10-10-10---7----|
Db|-10-10-10-10-10-10-10-10---7----|
Ab|--8--8--8--8--8--8--8--8---5----|
Eb|--------------------------------|

Outro: Guitars 1 & 2
eb|-------------------------------------------------------------|
Bb|-------------------------------------------------------------|
Gb|---------------------------------------------3---3---3-------|
Db|--3-------------2-/-3-----------2-/-3--------3---3---3---3---|
Ab|--3-------------2-/-3-----------2-/-3--------1---1---1---3---|
Eb|--1----1---1------------1---1----------1--1--------------1---|

eb|---------------------------------------------------|
Bb|---------------------------------------------------|
Gb|---------------3---3---3---2-----------------------|
Db|-2-/-3---------3---3---3---2-----------------------|
Ab|-2-/-3---------1---1---1---0-----------------------|
Eb|--------1--1---------------------------------------|

There we go!!!!
comments
print report bad tab
1 comment total.
0 reply
StuartR wrote on June 12 2004, 12:00 am

Good Work Mate

I want to post or [tab]
guest
You may want to rate the tab now too:
select rating
Please do not post tabs as comments. Select "correction" instead!