Oops, an error
Loading. Please wait.

Heroin Tab

ver4
ver4

Whole song

Interactive

More versions @911Tabs.com
12,325 views 3 this week
no commentswrite comment
1 2 3 4 5
worth learning
x 5
add to favorites launch autoscroll
font size
0
reset
Autoscroll
+/-
esc
set tempo
stop
Contributor
WARNING: You are trying to view
                                    content from Ultimate-Guitar.com
                                    in an unauthorized application,
                                    which is prohibited.

                                    Please use an official Ultimate
                                    Guitar Tabs application for iPhone,
                                    iPad or Android to access legitimate
                                    chords, guitar, bass, and drum tabs
                                    from Ultimate-Guitar.com database.

                                    Type "ultimate guitar tabs" in Apple
                                    App Store's or Android Market's
                                    search to find the application.
#----------------------------------PLEASE NOTE--------------------------------#
#This file is the author's own work and represents their interpretation of the#
#song. You may only use this file for private study, scholarship, or research.#
#-----------------------------------------------------------------------------#
#-- File created with Instab - http://www.pconline.com/~smcarey/instab.html --#
#-----------------------------------------------------------------------------#

Author/Artist: Velvet Underground
Title: Heroin

* Play in relatively same position as tab.


Tuning (c# A D f# a d), Down ~ 10%
Live Standard Tuning, Down ~ 10%
Bedroom* Tuning (eb A D G B E)



----|-------------|--|----------------------------|--|
----|-------------|--|-8--------------------------|--|
----|-------------|--|-x----------------4---------|--|
----|-------------|--|-6----------------4---------|2x|
----|-4--4--4--4--|--|---4-4-4-4-4-4-4----4-4-4---|--|
----|-------------|--|----------------------------|--|
   Intro           


----|-----------------------------------------------------------|
----|-8-------8---8-4-------4---4--8------9-8---8--4----4-4---4-|
----|-7----7----7---4----4---------7---7------7----4------------|
----|-6--6----------4--4------4----6-6-------------4--4-----4---|
----|-----------------------------------------------------------|
----|-----------------------------------------------------------|
  Verse             A              A               A


----|---------|
----|-8--9----|
----|-x--x----|
----|-6--8----|
----|----9----|
----|----x----|
  Chorus Chords Strum


----|--------------------------|
----|-8--8--8-8--9-9--9--11-9--|
----|-x--x--x-x--x-x--x--x--x--|
----|-6--6--6-6--8-8--8--10-8--|
----|--------------------------|
----|--------------------------|
  Chorus Pt.2 
comments
print report bad tab
I want to post or [tab]
guest
You may want to rate the tab now too:
select rating
Please do not post tabs as comments. Select "correction" instead!