Oops, an error
Loading. Please wait.

Rock N Roll Shower Tab

742 views 6 this week
no commentswrite comment
1 2 3 4 5
please rate
Autoscroll
+/-
esc
set tempo
stop
Hey! There's an official Ultimate Guitar app which is ideal
for learning songs when you're away from computer. Get the app
WARNING: You are trying to view
                                    content from Ultimate-Guitar.com
                                    in an unauthorized application,
                                    which is prohibited.

                                    Please use an official Ultimate
                                    Guitar Tabs application for iPhone,
                                    iPad or Android to access legitimate
                                    chords, guitar, bass, and drum tabs
                                    from Ultimate-Guitar.com database.

                                    Type "ultimate guitar tabs" in Apple
                                    App Store's or Android Market's
                                    search to find the application.
#----------------------------------PLEASE NOTE---------------------------------#
#This file is the author's own work and represents their interpretation of the #
#song. You may only use this file for private study, scholarship, or research. #
#------------------------------------------------------------------------------##

ROCK N' ROLL SHOWER - VENGEANCE
-------------------------------

   This is a very familiar piece of music in Western Europe. Vengeance
WAS a dutch band. they decided to stop after about 10 years. This piece of
music was used as the intro to a radio program called "Vuurwerk", or in
English : "Fireworks". The program used to airplay heavy metal, hardrock,
death metal, etc. The program had to be stopped because of "horizontal
programming" on public radio (politics). They need to broadcast 2 f@*king
hours of f#$king gospel EVERY F*&CKING DAY. Dutch metallers were really
                        -------------------
pissed off (and still are).
   Now in the Netherlands all you can listen to to hear something louder than
NOTHING ELSE MATTERS by Metallica is local stations at around midnight.
   Anyway, this song is written by Vengeance. They did TRY to break
through in America and had a video on MTV once, but it wouldn't work (as
happened to more European bands). However, Vengeance plays a mixture of
heavy metal and hardrock in a rock n' roll way with some party-like moods.
This song is certainly worth listening to (if you can get a tape or
something). The last CD by Vengeance is called The Last Teardrop and
kinda contains the greatest hits and five new songs. try to get it, it's
f&*@#king great !!!!!

   Most of the song is displaced by one 8th length (because of the drums).
In the intro are more guitars then just one, but they all play e or b, some
with tremolo, some with vibrato, some high, some low. There should be all
kind of fills throughout the song, but they're hard to figure out because
there are vocals over it.

TABLATURE EXPLANATION :
-----------------------
R = rest       |o--o|
q = 4th        |o--o| Repeat twice, unless stated otherwise
e = 8th        x. = 1.5 times length x
s = 16th       1.__ = first time X.__ = Xth time
h = half bar   Y.__>> = Yth time and continue
w = whole
x___y = lenght x+y
~~~ = vibrato


              ROCK N' ROLL SHOWER - VENGEANCE
              _______________________________

Written by     : Vengeance
Performance by : Vengeance
Transcribed by : Maarten Pol (9211911@HSU1.HVU.NL)

w/ full distortion & (lots of) reverb

|-----------------|------------------|-----------------|-----------------|
|-----------------|------------------|-----------------|-----------------|
|-----------------|----------9-------|-----------------|----------9------|
|-R-------------2-|-(2)------9-----R-|-R-------------2-|(2)-------9------|
|---------------2-|-(2)------7-------|---------------2-|(2)-------7------|
|---------------0-|-(0)0-3-0---------|---------------0-|(0)-0-3-0----0-0-|
  h..           e____e e e e q.    e   h..           e___e  e e e q  e e


|-----------------|-----------------|-----------------|-----------------|
|-----------------|-----------------|-----------------|-----------------|
|-----------------|----------9------|-----------------|----------9------|
|-9-R-7-R-5-4-R-2-|(2)-------9----R-|-R-----R-------2-|(2)-------9------|
|-9---7---5-4---2-|(2)-------7------|---------------2-|(2)-------7------|
|-7---5---3-2---0-|(0)-0-3-0--------|-----------3-0-0-|(0)-0-3-0----0-0-|
  e e e e e e e e___e  e e e q.   e   h_____e   e e e___e  e e e q  e e
 /^\/^\/^\ /^\
  |  |  |   |
Here you can either
play the rests or
P.M. really hard.
It's the same next time
it's played.

                   w/verse 1
|-----------------|-------------------|-----------------|-----------------|
|-----------------|-------------------|-----------------|-----------------|
|-----------------|o------------------|-----------------|----------9------|
|-9-R-7-R-5-4-R-2-|o-(2)-R------------|-R-------------2-|(2)-------9------|
|-9---7---5-4---2-|--(2)--------------|---------------2-|(2)-------7------|
|-7---5---3-2---0-|--(0)--------------|---------------0-|(0)-0-3-0----0-0-|
  e e e e e e e e_____q  h.             h..           e___e  e e e q  e e


|-----------------|-----------------|-----------------|-----------------|
|-----------------|-----------------|-----------------|-----------------|
|-----------------|-----------------|-----------------|----------9------|
|-9-R-7-R-5-4-R-2-|(2)-R------------|-R-------------2-|(2)-------9------|
|-9---7---5-4---2-|(2)--------------|---------------2-|(2)-------7------|
|-7---5---3-2---0-|(0)--------------|---------------0-|(0)-0-3-0----0-0-|
  e e e e e e e e___q  h.             h..           e___e  e e e q  e e


1._________________ 2.___________>>>  Chorus
|------------------|-----------------|-----------------|-----------------|
|------------------|-----------------|-----------------|-----------------|
|-----------------o|---------------2-|(2)------------2-|(2)------------2-|
|-9-R-7-R-5-4-R-2-o|-9-R-7-R-5-4-R-2-|(2)------------2-|(2)------------2-|
|-9---7---5-4---2--|-9---7---5-4---0-|(0)------------0-|(0)------------0-|
|-7---5---3-2---0--|-7---5---3-2-----|-----------------|-----------------|
  e e e e e e e e__  e e e e e e e e__h..            e___h...          e__


|-----------------|-----------------|-----------------|-----------------|
|-----------------|-----------------|-----------------|-----------------|
|(2)------------2-|(2)--------------|-----------------|-----------------|
|(2)------------2-|(2)------------2-|(2)-R------------|-R-------------2-|
|(0)------------0-|(0)------------2-|(2)--------------|-----4---5---7-2-|
|-----------------|---------------0-|(0)--------------|---0-2-0-3-0-5-0-|
__h..           e___h..           e___q  h.             e e e e e e e e__


|-----------------|-----------------|-----------------|-----------------|
|-----------------|-----------------|-----------------|-----------------|
|-----------------|---------------2-|(2)------------2-|(2)------------2-|
|(2)--R-----------|-R-------------2-|(2)------------2-|(2)------------2-|
|(2)--------------|-----4---5---7-0-|(0)------------0-|(0)------------0-|
|(0)--------------|---0-2-0-3-0-5---|-----------------|-----------------|
__q   h.            e e e e e e e e___h..           e___h..           e__


|-----------------|-----------------|-----------------|-----------------|
|-----------------|-----------------|-----------------|-----------------|
|(2)------------2-|(2)--------------|-----------------|-----------------|
|(2)------------2-|(2)------------2-|(2)-R------------|-R-------------2-|
|(0)------------0-|(0)------------2-|(2)--------------|-----4---5---7-2-|
|-----------------|---------------0-|(0)--------------|---0-2-0-3-0-5-0-|
__h..           e___h..           e___q  h.             e e e e e e e e__


|-----------------|-----------------|
|-----------------|-----------------|
|-----------------|-----------------|
|(2)-R------------|-R-------------2-|
|(2)--------------|---------------2-|
|(0)--------------|---------------0-|
__q  h.             h..           e__

 w/verse 2
|-------------------|-----------------|-----------------|
|-------------------|-----------------|-----------------|
|o------------------|-----------------|----------9------|
|o-(2)-R------------|-R-------------2-|(2)-------9------|
|--(2)--------------|---------------2-|(2)-------7------|
|--(0)--------------|---------------0-|(0)-0-3-0----0-0-|
____q  h.             h..           e___e  e e e q  e e


|-----------------|-----------------|-----------------|-----------------|
|-----------------|-----------------|-----------------|-----------------|
|-----------------|-----------------|-----------------|----------9------|
|-9-R-7-R-5-4-R-2-|(2)-R------------|-R----R--------2-|(2)-------9------|
|-9---7---5-4---2-|(2)--------------|---------------2-|(2)-------7------|
|-7---5---3-2---0-|(0)--------------|----------3-0--0-|(0)-0-3-0----0-0-|
  e e e e e e e e___q  h.             h____e   e e  e___e  e e e q  e e


1._________________ 2.___________>>> Chorus
|------------------|-----------------|-----------------|-----------------|
|------------------|-----------------|-----------------|-----------------|
|-----------------o|---------------2-|(2)------------2-|(2)------------2-|
|-9-R-7-R-5-4-R-2-o|-9-R-7-R-5-4-R-2-|(2)------------2-|(2)------------2-|
|-9---7---5-4---2--|-9---7---5-4---0-|(0)------------0-|(0)------------0-|
|-7---5---3-2---0--|-7---5---3-2-----|-----------------|-----------------|
  e e e e e e e e__  e e e e e e e e__h..            e___h...          e__


|-----------------|-----------------|-----------------|-----------------|
|-----------------|-----------------|-----------------|-----------------|
|(2)------------2-|(2)--------------|-----------------|-----------------|
|(2)------------2-|(2)------------2-|(2)-R------------|-R-------------2-|
|(0)------------0-|(0)------------2-|(2)--------------|-----4---5---7-2-|
|-----------------|---------------0-|(0)--------------|---0-2-0-3-0-5-0-|
__h..           e___h..           e___q  h.             e e e e e e e e__


|-----------------|-----------------|-----------------|-----------------|
|-----------------|-----------------|-----------------|-----------------|
|-----------------|---------------2-|(2)------------2-|(2)------------2-|
|(2)--R-----------|-R-------------2-|(2)------------2-|(2)------------2-|
|(2)--------------|-----4---5---7-0-|(0)------------0-|(0)------------0-|
|(0)--------------|---0-2-0-3-0-5---|-----------------|-----------------|
__q   h.            e e e e e e e e___h..           e___h..           e__


|-----------------|-----------------|-----------------|-----------------|
|-----------------|-----------------|-----------------|-----------------|
|(2)------------2-|(2)--------------|-----------------|-----------------|
|(2)------------2-|(2)------------2-|(2)-R------------|-R-------------2-|
|(0)------------0-|(0)------------2-|(2)--------------|-----4---5---7-2-|
|-----------------|---------------0-|(0)--------------|---0-2-0-3-0-5-0-|
__h..           e___h..           e___q  h.             e e e e e e e e__

                                  INTERLUDE
|-----------------|-----------------|-----------------|-----------------|
|-----------------|-----------------|-----------------|-----------------|
|-----------------|-----------------|-----------------|-----------------|
|(2)--R-----------|-R-------------4-|(4)--------------|(4)-----------4--|
|(2)--------------|-------9-7-----4-|(4)--------------|(4)-----------4--|
|(0)--------------|-----------9-7-2-|(2)--------------|(2)-----------2--|
__q   h.            q.    e e e e e___w_________________h..          e___


|-----------------|-----------------|-----------------|-----------------|
|-----------------|-----------------|-----------------|-----------------|
|-----------------|-----------------|-----------------|-----------------|
|-(4)-----------4-|(4)-R------------|-R-------------4-|(4)-R------------|
|-(4)-----------4-|(4)--------------|---------------4-|(4)--------------|
|-(2)-----------2-|(2)--------------|---------------2-|(2)--------------|
___h..          e___q  h.             h..           e___q  h.


|-----------------|-----------------|-----------------|-----------------|
|-----------------|-----------------|-----------------|-----------------|
|-----------------|-----------------|-----------------|-----------------|
|--R------------4-|(4)-R-------R--4-|(4)-R--------R-4-|(4)\-R--4-\-R--4-|
|---------------4-|(4)------------4-|(4)------------4-|(4)\----4-\----4-|
|---------------2-|(2)------------2-|(2)------------2-|(2)\----2-\----2-|
   h..          e___q  h_______e  e___q  h________e e___q   e  q.  e  e__


|-----------------|
|-----------------| And here the solo starts, I've not quite been
|-----------------| able to find out what is played here. I do
|(4)\--R-4-\-R----| know what some notes are and that it is played with
|(4)\----4-\------| two guitars, and what the last note is, so I'll continue
|(2)\----2-\------| there... (Solo takes 8 bars)
__q    e q.  e  e


|-----------------|-----------------|-----------------|-----------------|
|-17~~~~~~~~~~~~~~|(17)~~~~~~-------|-----------------|-----------------|
|-----------------|-----------------|----------9------|-----------------|
|-----------------|-----------R---2-|(2)-------9------|-9-R-7-R-5-4-R-2-|
|-----------------|---------------2-|(2)-------7------|-9---7---5-4---2-|
|-----------------|---------------0-|(0)-0-3-0----0-0-|-7---5---3-2---0-|
  w_________________h         q.  e___e  e e e q  e e   e e e e e e e e__


|-----------------|-----------------|-----------------|-----------------|
|-----------------|-----------------|-----------------|-----------------|
|-----------------|-----------------|----------9------|---------------2-|
|(2)--R-----------|-R-------------2-|(2)-------9------|-9-R-7-R-5-4-R-2-|
|(2)--------------|---------------2-|(2)-------7------|-9---7---5-4---0-|
|(0)--------------|---------------0-|(0)-0-3-0----0-0-|-7---5---3-2-----|
__q   h.            h..           e___e  e e e q  e e   e e e e e e e e__


|-------------------|-----------------|-----------------|-----------------|
|-------------------|-----------------|-----------------|-----------------|
|o-(2)------------2-|(2)------------2-|(2)------------2-|(2)--------------|
|o-(2)------------2-|(2)------------2-|(2)------------2-|(2)------------2-|
|--(0)------------0-|(0)------------0-|(0)------------0-|(0)------------2-|
|-------------------|-----------------|-----------------|---------------0-|
__h..           e___h..           e___h..           e___h..           e__


                                                   Repeat and Fade (8 bars)
|------------------|-----------------|------------------|------------------|
|------------------|-----------------|------------------|------------------|
|-----------9------|-----------------|-----------9------|---------------2-o|
|-(2)-------9------|-9-R-7-R-5-4-R-2-|-(2)-------9------|-9-R-7-R-5-4-R-2-o|
|-(2)-------7------|-9---7---5-4---2-|-(2)-------7------|-9---7---5-4---0--|
|-(0)-0-3-0----0-0-|-7---5---3-2---0-|-(0)-0-3-0----0-0-|-7---5---3-2------|
___e  e e e q  e e   e e e e e e e e____e  e e e q  e e   e e e e e e e e__

___________________________________________________________________________
BASS
___________________________________________________________________________


Kick off when the lyrics (verse 1) come in with an E pedal. Play an e pedal
throughout the verses, I.E. play eight notes on (low) E. Play with a
synthbass effect and staccato. In the chorus you need to play an A pedal.
In going from verse to chorus play some chromatic notes towards A. During
the interlude the bass plays a F# pedal, even when the guitars are quiet.

___________________________________________________________________________
LYRICS
___________________________________________________________________________



Going to a party on a saturday night,
the girls were all pretty, but the band wasn't right !
I got so tired of that some old drone,
so I stepped right up to the microphone.

Chorus :

I said I know what you,
and I'll give you what you need,
so take a rock n' roll shower.
I know what you want
and I'll give you what you need,
so take a rock n' roll shower.

Watts/what's on stage going round and round,
people in the crowd going up and down.
I saw a beautiful blond and a pretty brunette.
I said ,eh, come on girls, let's get wet.

Chorus



Get your feet above the ground, I'm out of control.



Going to a party on a saturday night,
playing rock n' roll 'till the early light.

Well I know what you want (rock n' roll shower)
and I'll give you what you need (rock n' roll shower)
rock n' roll shower. (rock n' roll shower)

Well I know what you want (rock n' roll shower)
and I'll give you what you need (rock n' roll shower)
rock n' roll shower. (rock n' roll shower)

Well I know what you want (rock n' roll shower)
and I'll give you what you need (rock n' roll shower)
rock n' roll shower. (start fading)

Well I know what you want (rock n' roll shower)
and I'll give you what you need (rock n' roll shower)
rock n' roll shower.

+--+ The END

Have fun,
  Maarten Pol
   9211911@HSU1.HVU.NL

Anyone familiar with VENGEANCE, please DO try to figure things out and
post them, mail them or upload them. Maybe somebody can find out what
fills are played and what the exact solo is.


comments
We did not receive enough feedback on this tab! Please rate:
print report bad tab
1 2 3 4 5
I want to post or [tab]
guest
You may want to rate the tab now too:
select rating
Please do not post tabs as comments. Select "correction" instead!