Oops, an error
Loading. Please wait.

Superheroes Tab

ver1
ver1

Whole song

Interactive

More versions @911Tabs.com
933 views 6 this week
no commentswrite comment
1 2 3 4 5
excellent!
x 4
Autoscroll
+/-
esc
set tempo
stop
Contributor
Difficulty
intermediate
WARNING: You are trying to view
                                    content from Ultimate-Guitar.com
                                    in an unauthorized application,
                                    which is prohibited.

                                    Please use an official Ultimate
                                    Guitar Tabs application for iPhone,
                                    iPad or Android to access legitimate
                                    chords, guitar, bass, and drum tabs
                                    from Ultimate-Guitar.com database.

                                    Type "ultimate guitar tabs" in Apple
                                    App Store's or Android Market's
                                    search to find the application.
Song: "Superheroes"
Artist: Ventura Lights
Album: Way Up Here
Tuning: Standard (EADGBe)
Guitar 1: Bear Rose (Lead)
Guitar 2: BJ Bryant (Rhythm)

|Guitar 1: (Lead)|

Intro: (0:00-0:13)

e|-15-15-------------------| 
B|-------13-13-12-12-13-13-|
G|-------------------------| (x9)
D|-------------------------|
A|-------------------------|
E|-------------------------|

Verse 1: (0:14-0:39)

e|-------------------------------------------------|
B|-------------------------------------------------|
G|-14-------14-------16----17-16-16-17-16-16-17-16-|
D|----14-14----14-14----14-------------------------|
A|-------------------------------------------------|
E|-------------------------------------------------|

e|-------------------------------------------------|
B|-------------------------12-------12-------------|
G|-12-------12-------14-------14-14----14-14----12-|
D|----12-12----12-12----12-------------------12----|
A|-------------------------------------------------|
E|-------------------------------------------------|

e|-------------------------------------------------|
B|-------------------------10-------10-------------|
G|-10-------10-------12-------12-12----12-12----10-|
D|----10-10----10-10----10-------------------10----|
A|-------------------------------------------------|
E|-------------------------------------------------|


e|-------------------------------------------------|
B|--------------9--------9-------------------------|
G|-----9-----9--------------9-----------9--9-------|
D|--9-----9--------9--9--------9--9--9--------9--9-|
A|-------------------------------------------------|
E|-------------------------------------------------|

e|-------------------------------------------------|
B|-------------------------------------------------|
G|-14-------14-------16----17-16-16-17-16-16-17-16-|
D|----14-14----14-14----14-------------------------|
A|-------------------------------------------------|
E|-------------------------------------------------|

e|-------------------------------------------------|
B|-------------------------12-------12-------------|
G|-12-------12-------14-------14-14----14-14----12-|
D|----12-12----12-12----12-------------------12----|
A|-------------------------------------------------|
E|-------------------------------------------------|

e|-------------------------------------------------|
B|-------------------------10-------10-------------|
G|-10-------10-------12-------12-12----12-12----10-|
D|----10-10----10-10----10-------------------10----|
A|-------------------------------------------------|
E|-------------------------------------------------|


e|-------------------------------------------------|
B|-------------------------------------------------|
G|--9----------------------------------------------|
D|-------------------------------------------------|
A|-------------------------------------------------|
E|-------------------------------------------------|

Pre-Chorus 1: (0:40-0:42)

e|-15-15-------------------| 
B|-------13-13-12-12-13-13-|
G|-------------------------| (x2)
D|-------------------------|
A|-------------------------|
E|-------------------------|

Chorus: (0:43-1:07)

e|-15-15-------------------| 
B|-------13-13-12-12-13-13-|
G|-------------------------| (x16)
D|-------------------------|
A|-------------------------|
E|-------------------------|

Instrumental Bridge: (1:08-1:19)

e|-------------------------------------------------|
B|-------------------------------------------------|
G|-14-------14-------16----17-16-16-17-16-16-17-16-|
D|----14-14----14-14----14-------------------------|
A|-------------------------------------------------|
E|-------------------------------------------------|

e|-------------------------------------------------|
B|-------------------------12-------12-------------|
G|-12-------12-------14-------14-14----14-14----12-|
D|----12-12----12-12----12-------------------12----|
A|-------------------------------------------------|
E|-------------------------------------------------|

e|-------------------------------------------------|
B|-------------------------10-------10-------------|
G|-10-------10-------12-------12-12----12-12----10-|
D|----10-10----10-10----10-------------------10----|
A|-------------------------------------------------|
E|-------------------------------------------------|


e|-------------------------------------------------|
B|--------------9--------9-------------------------|
G|-----9-----9--------------9-----------9--9-------|
D|--9-----9--------9--9--------9--9--9--------9--9-|
A|-------------------------------------------------|
E|-------------------------------------------------|

Verse 2: (Same as verse 1) (1:20-1:45)

Pre-Chorus 2: (1:46-1:47)

e|-15-15-------------------| 
B|-------13-13-12-12-13-13-|
G|-------------------------| (x1)
D|-------------------------|
A|-------------------------|
E|-------------------------|

Chorus (1:48-2:12)

Bridge: (2:13-3:02)

Rest (x8)

e|-------------------------| 
B|-------12-------12----12-|
G|-10-10----10-10----10----| (Palm Muted)
D|-------------------------| (x24)
A|-------------------------|
E|-------------------------|
   *  *  *  *  *  *  *  *

Chorus (3:03-3:29)

|Guitar 2 (Rhythm)|

Intro: (0:00-0:13)

Rest (x2)

e|-----------------------------------------------------------------|
B|-----------------------------------------------------------------|
G|-5-5-5-5-5-5-5-5-5-5-5-5-5-5-5-5---------------------------------|
D|-5-5-5-5-5-5-5-5-5-5-5-5-5-5-5-5-7-7-7-7-7-7-7-7-7-7-7-7-7-7-7-7-|
A|-3-3-3-3-3-3-3-3-3-3-3-3-3-3-3-3-7-7-7-7-7-7-7-7-7-7-7-7-7-7-7-7-|
E|---------------------------------5-5-5-5-5-5-5-5-5-5-5-5-5-5-5-5-|

e|-----------------------------------------------------------------|
B|-----------------------------------------------------------------|
G|-----------------------------------------------------------------|
D|-3-3-3-3-3-3-3-3-3-3-3-3-3-3-3-3-7---5---3-3-3-3-3-3-3-3-3-3-3-3-|
A|-3-3-3-3-3-3-3-3-3-3-3-3-3-3-3-3-7---5---3-3-3-3-3-3-3-3-3-3-3-3-|
E|-1-1-1-1-1-1-1-1-1-1-1-1-1-1-1-1-5---3---1-1-1-1-1-1-1-1-1-1-1-1-|

Verse 1: (0:14-0:39)

e|----------------|
B|----------------|
G|----------------|
D|-7--------------|
A|-7--------------|
E|-5--------------|

(Rest x15)

Pre-Chorus 1: (0:40-0:42)

(Rest x2)

Chorus: (0:43-1:07)

e|-----------------------------------------------------------------|
B|-----------------------------------------------------------------|
G|-5-5-5-5-5-5-5-5-5-5-5-5-5-5-5-5---------------------------------|
D|-5-5-5-5-5-5-5-5-5-5-5-5-5-5-5-5-7-7-7-7-7-7-7-7-7-7-7-7-7-7-7-7-|
A|-3-3-3-3-3-3-3-3-3-3-3-3-3-3-3-3-7-7-7-7-7-7-7-7-7-7-7-7-7-7-7-7-|
E|---------------------------------5-5-5-5-5-5-5-5-5-5-5-5-5-5-5-5-|

e|-----------------------------------------------------------------|
B|-----------------------------------------------------------------|
G|-----------------------------------------------------------------|
D|-3-3-3-3-3-3-3-3-3-3-3-3-3-3-3-3-7---5---3-3-3-3-3-3-3-3-3-3-3-3-| (x2)
A|-3-3-3-3-3-3-3-3-3-3-3-3-3-3-3-3-7---5---3-3-3-3-3-3-3-3-3-3-3-3-|
E|-1-1-1-1-1-1-1-1-1-1-1-1-1-1-1-1-5---3---1-1-1-1-1-1-1-1-1-1-1-1-|

Instrumental Bridge: (1:08-1:19)

e|-----------------------------------------------------------------|
B|-----------------------------------------------------------------|
G|-----------------------------------------------------------------|
D|-7-------------------------------5-------------------------------|
A|-7-------------------------------5-------------------------------|
E|-5-------------------------------3-------------------------------|

e|-----------------------------------------------------------------|
B|-----------------------------------------------------------------|
G|-----------------------------------------------------------------|
D|-3-------------------------------2-------------------------------|
A|-3-------------------------------2-------------------------------|
E|-1-------------------------------0-------------------------------|

Verse 2: (1:20-1:45)

(Rest x8)

e|----------------------------------------|
B|----------------------------------------|
G|-14-14---14---------14-14---14-14-14-14-|
D|-14-14---14---------14-14---14-14-14-14-|
A|-12-12---12---------12-12---12-12-12-12-|
E|----------------------------------------|

e|----------------------------------------|
B|----------------------------------------|
G|-12-12---12---------12-12---12-12-12-12-|
D|-12-12---12---------12-12---12-12-12-12-|
A|-10-10---10---------10-10---10-10-10-10-|
E|----------------------------------------|

e|----------------------------------------|
B|----------------------------------------|
G|-10-10---10---------10-10---10-10-10-10-|
D|-10-10---10---------10-10---10-10-10-10-|
A|--8--8----8----------8--8----8--8--8--8-|
E|----------------------------------------|

e|----------------------------------------|
B|----------------------------------------|
G|--9--9----9----------9--9----9--9--9--9-|
D|--9--9----9----------9--9----9--9--9--9-|
A|--7--7----7----------7--7----7--7--7--7-|
E|----------------------------------------|

Pre-Chorus 2: (1:46-1:47)

Rest (x1)

Chorus (1:48-2:12)

Bridge: (2:13-3:02)

e|-----------------------------------------------------------------|
B|-----------------------------------------------------------------|
G|-12-----------------------------10------9------------------------|
D|-----------------------------------------------------------------|
A|-10------------------------------8------7------------------------|
E|-----------------------------------------------------------------|

e|-----------------------------------------------------------------|
B|-----------------------------------------------------------------|
G|--7-----10-----------------------9------4------------5------7----|
D|-----------------------------------------------------------------| (x2)
A|--5------8-----------------------7------2------------3------5----|
E|-----------------------------------------------------------------|

e|-----------------------------------------------------------------|
B|-----------------------------------------------------------------|
G|-----------------------------------------------------------------|
D|-7-------------------------------5-------------------------------|
A|-7-------------------------------5-------------------------------|
E|-5-------------------------------3-------------------------------|

e|-----------------------------------------------------------------|
B|-----------------------------------------------------------------|
G|-----------------------------------------------------------------|
D|-3-------------------------------5-------------------------------|
A|-3-------------------------------5-------------------------------|
E|-1-------------------------------3-------------------------------|

e|-----------------------------------------------------------------|
B|-----------------------------------------------------------------|
G|-----------------------------------------------------------------|
D|-7-------------------------------5-------------------------------|
A|-7-------------------------------5-------------------------------|
E|-5-------------------------------3-------------------------------|

e|-----------------------------------------------------------------|
B|-----------------------------------------------------------------|
G|-----------------------------------------------------------------|
D|-3-------------------------------5---------------7-7-7-7-7-7-7-7-|
A|-3-------------------------------5---------------7-7-7-7-7-7-7-7-|
E|-1-------------------------------3---------------5-5-5-5-5-5-5-5-|

Chorus: (3:03-3:29)

e|-----------------------------------------------------------------|
B|-----------------------------------------------------------------|
G|-5-5-5-5-5-5-5-5-5-5-5-5-5-5-5-5---------------------------------|
D|-5-5-5-5-5-5-5-5-5-5-5-5-5-5-5-5-7-7-7-7-7-7-7-7-7-7-7-7-7-7-7-7-|
A|-3-3-3-3-3-3-3-3-3-3-3-3-3-3-3-3-7-7-7-7-7-7-7-7-7-7-7-7-7-7-7-7-|
E|---------------------------------5-5-5-5-5-5-5-5-5-5-5-5-5-5-5-5-|

e|-----------------------------------------------------------------|
B|-----------------------------------------------------------------|
G|-----------------------------------------------------------------|
D|-3-3-3-3-3-3-3-3-3-3-3-3-3-3-3-3-7-7-5-5-3-3-3-3-3-3-3-3-3-3-3-3-|
A|-3-3-3-3-3-3-3-3-3-3-3-3-3-3-3-3-7-7-5-5-3-3-3-3-3-3-3-3-3-3-3-3-|
E|-1-1-1-1-1-1-1-1-1-1-1-1-1-1-1-1-5-5-3-3-1-1-1-1-1-1-1-1-1-1-1-1-|

e|-----------------------------------------------------------------|
B|-----------------------------------------------------------------|
G|-5-5-5-5-5-5-5-5-5-5-5-5-5-5-5-5---------------------------------|
D|-5-5-5-5-5-5-5-5-5-5-5-5-5-5-5-5-7-7-7-7-7-7-7-7-7-7-7-7-7-7-7-7-|
A|-3-3-3-3-3-3-3-3-3-3-3-3-3-3-3-3-7-7-7-7-7-7-7-7-7-7-7-7-7-7-7-7-|
E|---------------------------------5-5-5-5-5-5-5-5-5-5-5-5-5-5-5-5-|

e|-----------------------------------------------------------------|
B|-----------------------------------------------------------------|
G|-----------------------------------------------------------------|
D|-3-3-3-3-3-3-3-3-3-3-3-3-3-3-3-3-7-7-5-5-3-3-3-3-3-3-3-3-3-3-3-5-|
A|-3-3-3-3-3-3-3-3-3-3-3-3-3-3-3-3-7-7-5-5-3-3-3-3-3-3-3-3-3-3-3-5-|
E|-1-1-1-1-1-1-1-1-1-1-1-1-1-1-1-1-5-5-3-3-1-1-1-1-1-1-1-1-1-1-1-3-|

e|----------------|
B|----------------|
G|-5--------------|
D|-3--------------|
A|-3--------------|
E|----------------|


comments
print report bad tab
I want to post or [tab]
guest
You may want to rate the tab now too:
select rating
Please do not post tabs as comments. Select "correction" instead!