Oops, an error
Loading. Please wait.

A Taste Of Honey Bass Tab

1,582 views 6 this week
no commentswrite comment
1 2 3 4 5
please rate
add to favorites launch autoscroll
font size
0
reset
Autoscroll
+/-
esc
set tempo
stop
WARNING: You are trying to view
                                    content from Ultimate-Guitar.com
                                    in an unauthorized application,
                                    which is prohibited.

                                    Please use an official Ultimate
                                    Guitar Tabs application for iPhone,
                                    iPad or Android to access legitimate
                                    chords, guitar, bass, and drum tabs
                                    from Ultimate-Guitar.com database.

                                    Type "ultimate guitar tabs" in Apple
                                    App Store's or Android Market's
                                    search to find the application.
A TASTE OF HONEY

The Ventures

INTRO

G|---------------------------------|---------------------------------|
D|-0-------------------------------|---------------------------------|
A|---------------------------------|---------------------------------|
E|---------------------------------|---------------------------------|

G|---------------------------------|---------------------------------|
D|---------------------------------|---------------------------------|
A|-4-------------------------------|---------------------------------|
E|---------------------------------|---------------------------------|

G|---------------------------------|---------------------------------|
D|-4-------------------------------|---------------------------------|
A|---------------------------------|---------------------------------|
E|---------------------------------|---------------------------------|

G|---------------------------------|---------------------------------|
D|---------------------------------|-4-------6-------7---------------|
A|---------------------------------|-------------------------4-------|
E|---------------------------------|---------------------------------|

G|---------------------------------|
D|-4-------6-------7---------------|
A|-------------------------4-------|
E|---------------------------------|

VERSE

G|---------------------------------|---------------------------------|
D|-4-------6-------7---------------|-4-------6-------7---------------|
A|-------------------------4-------|-------------------------4-------|
E|---------------------------------|---------------------------------|

G|---------------------------------|-4-------------------------------|
D|-4-------6-------7-------4-------|---------4-------1---------------|
A|---------------------------------|-------------------------2-------|
E|---------------------------------|---------------------------------|

G|---------------------------------|---------------------------------|
D|-4-------6-------7---------------|-4-------6-------7---------------|
A|-------------------------4-------|-------------------------4-------|
E|---------------------------------|---------------------------------|

G|---------------------------------|-4-------------------------------|
D|-4-------6-------7-------4-------|---------4-------1---------------|
A|---------------------------------|-------------------------2-------|
E|---------------------------------|---------------------------------|

G|-------------------------6-------|---------------------------------|
D|-4-------6-------7---------------|-4-------6-------7-------4-------|
A|---------------------------------|---------------------------------|
E|---------------------------------|---------------------------------|

G|---------------------------------|---------------------------------|
D|-7-----------7-------------------|---------------------------------|
A|---------------------------------|-4-----------4-------------------|
E|---------------------------------|---------------------------------|

G|-----------------4---4-----------|---------------------------------|
D|-4---------------------------4---|---------------------------------|
A|---------------------------------|---------------------------------|
E|---------------------------------|---------------------------------|

VERSE

G|---------------------------------|---------------------------------|
D|-4-------6-------7---------------|-4-------6-------7---------------|
A|-------------------------4-------|-------------------------4-------|
E|---------------------------------|---------------------------------|

G|---------------------------------|-4-------------------------------|
D|-4-------6-------7-------4-------|---------4-------1---------------|
A|---------------------------------|-------------------------2-------|
E|---------------------------------|---------------------------------|

G|---------------------------------|---------------------------------|
D|-4-------6-------7---------------|-4-------6-------7---------------|
A|-------------------------4-------|-------------------------4-------|
E|---------------------------------|---------------------------------|

G|---------------------------------|-4-------------------------------|
D|-4-------6-------7-------4-------|---------4-------1---------------|
A|---------------------------------|-------------------------2-------|
E|---------------------------------|---------------------------------|

G|-------------------------6-------|---------------------------------|
D|-4-------6-------7---------------|-4-------6-------7-------4-------|
A|---------------------------------|---------------------------------|
E|---------------------------------|---------------------------------|

G|---------------------------------|---------------------------------|
D|-7-----------7-------------------|---------------------------------|
A|---------------------------------|-4-----------4-------------------|
E|---------------------------------|---------------------------------|

G|-----------------4---4-----------|---------------------------------|
D|-4---------------------------4---|---7--9--7-------6-------4-------|
A|---------------------------------|---------------------------------|
E|---------------------------------|---------------------------------|

G|---------------------------------|-4-------------------------------|
D|-4-------6-------7-------4-------|---------4-------1---------------|
A|---------------------------------|-------------------------2-------|
E|---------------------------------|---------------------------------|

G|---------------------------------|-4-------------------------------|
D|-4-------6-------7---------------|---------4-------1---------------|
A|-------------------------4-------|-------------------------2-------|
E|---------------------------------|---------------------------------|

BRIDGE

G|---------------------------------|---------------------------------|
D|-0-------------------------------|---------------------------------|
A|---------------------------------|---------------------------------|
E|---------------------------------|---------------------------------|

G|---------------------------------|---------------------------------|
D|---------------------------------|---------------------------------|
A|-4-------------------------------|---------------------------------|
E|---------------------------------|---------------------------------|

G|---------------------------------|---------------------------------|
D|-4-------------------------------|---------------------------------|
A|---------------------------------|---------------------------------|
E|---------------------------------|---------------------------------|

G|---------------------------------|
D|---------------------------------|
A|---------------------------------|
E|---------------------------------|

VERSE

G|---------------------------------|---------------------------------|
D|-4-------6-------7---------------|-4-------6-------7---------------|
A|-------------------------4-------|-------------------------4-------|
E|---------------------------------|---------------------------------|

G|---------------------------------|-4-------------------------------|
D|-4-------6-------7-------4-------|---------4-------1---------------|
A|---------------------------------|-------------------------2-------|
E|---------------------------------|---------------------------------|

G|---------------------------------|---------------------------------|
D|-4-------6-------7---------------|-4-------6-------7---------------|
A|-------------------------4-------|-------------------------4-------|
E|---------------------------------|---------------------------------|

G|---------------------------------|-4-------------------------------|
D|-4-------6-------7-------4-------|---------4-------1---------------|
A|---------------------------------|-------------------------2-------|
E|---------------------------------|---------------------------------|

G|-------------------------6-------|---------------------------------|
D|-4-------6-------7---------------|-4-------6-------7-------4-------|
A|---------------------------------|---------------------------------|
E|---------------------------------|---------------------------------|

G|---------------------------------|---------------------------------|
D|-7-----------7-------------------|---------------------------------|
A|---------------------------------|-4-----------4-------------------|
E|---------------------------------|---------------------------------|

G|-----------------4---4-----------|---------------------------------|
D|-4---------------------------4---|---------------------------------|
A|---------------------------------|---------------------------------|
E|---------------------------------|---------------------------------|

VERSE

G|---------------------------------|---------------------------------|
D|-4-------6-------7---------------|-4-------6-------7---------------|
A|-------------------------4-------|-------------------------4-------|
E|---------------------------------|---------------------------------|

G|---------------------------------|-4-------------------------------|
D|-4-------6-------7-------4-------|---------4-------1---------------|
A|---------------------------------|-------------------------2-------|
E|---------------------------------|---------------------------------|

G|---------------------------------|---------------------------------|
D|-4-------6-------7---------------|-4-------6-------7---------------|
A|-------------------------4-------|-------------------------4-------|
E|---------------------------------|---------------------------------|

G|---------------------------------|-4-------------------------------|
D|-4-------6-------7-------4-------|---------4-------1---------------|
A|---------------------------------|-------------------------2-------|
E|---------------------------------|---------------------------------|

G|-------------------------6-------|---------------------------------|
D|-4-------6-------7---------------|-4-------6-------7-------4-------|
A|---------------------------------|---------------------------------|
E|---------------------------------|---------------------------------|

G|---------------------------------|---------------------------------|
D|-7-----------7-------------------|---------------------------------|
A|---------------------------------|-4-----------4-------------------|
E|---------------------------------|---------------------------------|

G|-----------------4---4-----------|---------------------------------|
D|-4---------------------------4---|---7--9--7-------6-------4-------|
A|---------------------------------|---------------------------------|
E|---------------------------------|---------------------------------|

G|---------------------------------|-4-------------------------------|
D|-4-------6-------7-------4-------|---------4-------1---------------|
A|---------------------------------|-------------------------2-------|
E|---------------------------------|---------------------------------|

G|---------------------------------|-4-------------------------------|
D|-4-------6-------7---------------|---------4-------1---------------|
A|-------------------------4-------|-------------------------2-------|
E|---------------------------------|---------------------------------|

BRIDGE

G|---------------------------------|---------------------------------|
D|-0-------------------------------|---------------------------------|
A|---------------------------------|---------------------------------|
E|---------------------------------|---------------------------------|

G|---------------------------------|---------------------------------|
D|---------------------------------|---------------------------------|
A|-4-------------------------------|---------------------------------|
E|---------------------------------|---------------------------------|

G|---------------------------------|---------------------------------|
D|-4-------------------------------|---------------------------------|
A|---------------------------------|---------------------------------|
E|---------------------------------|---------------------------------|

G|---------------------------------|
D|---------------------------------|
A|---------------------------------|
E|---------------------------------|

VERSE

G|---------------------------------|---------------------------------|
D|-4-------6-------7---------------|-4-------6-------7---------------|
A|-------------------------4-------|-------------------------4-------|
E|---------------------------------|---------------------------------|

G|---------------------------------|---------------------------------|
D|-5-------7-------8---------------|-5-------7-------8---------------|
A|-------------------------5-------|-------------------------5-------|
E|---------------------------------|---------------------------------|

G|---------------------------------|---------------------------------|
D|-5-------7-------8---------------|-5-------7-------8---------------|
A|-------------------------5-------|-------------------------5-------|
E|---------------------------------|---------------------------------|

G|---------------------------------|-5-------------------------------|
D|-5-------7-------8-------5-------|---------5-------2---------------|
A|---------------------------------|-------------------------3-------|
E|---------------------------------|---------------------------------|

G|---------------------------------|---------------------------------|
D|-5-------7-------8---------------|-5-------7-------8---------------|
A|-------------------------5-------|-------------------------5-------|
E|---------------------------------|---------------------------------|

G|---------------------------------|-5-------------------------------|
D|-5-------7-------8-------5-------|---------5-------2---------------|
A|---------------------------------|-------------------------3-------|
E|---------------------------------|---------------------------------|

G|-------------------------7-------|---------------------------------|
D|-5-------7-------8---------------|-5-------7-------8-------5-------|
A|---------------------------------|---------------------------------|
E|---------------------------------|---------------------------------|

G|---------------------------------|---------------------------------|
D|-8-----------8-------------------|---------------------------------|
A|---------------------------------|-5-----------5-------------------|
E|---------------------------------|---------------------------------|

G|---------------------------------|---------------------------------|
D|-8-----------8-------------------|---------------------------------|
A|---------------------------------|-5-----------5-------------------|
E|---------------------------------|---------------------------------|

G|---------------------------------|---------------------------------|
D|-8-----------8-------------------|---------------------------------|
A|---------------------------------|-5-----------5-------------------|
E|---------------------------------|---------------------------------|

G|-----------------5---5-----------|---------------------------------|
D|-5---------------------------5---|---------------------------------|
A|---------------------------------|---------------------------------|
E|---------------------------------|---------------------------------|
comments
We did not receive enough feedback on this tab! Please rate:
print report bad tab
1 2 3 4 5
I want to post or [tab]
guest
You may want to rate the tab now too:
select rating
Please do not post tabs as comments. Select "correction" instead!