Oops, an error
Loading. Please wait.

A Taste Of Honey Tab

7,754 views 6 this week
no commentswrite comment
1 2 3 4 5
excellent!
x 1
Autoscroll
+/-
esc
set tempo
stop
Contributor
Hey! There's an official Ultimate Guitar app which is ideal
for learning songs when you're away from computer. Get the app
WARNING: You are trying to view
                                    content from Ultimate-Guitar.com
                                    in an unauthorized application,
                                    which is prohibited.

                                    Please use an official Ultimate
                                    Guitar Tabs application for iPhone,
                                    iPad or Android to access legitimate
                                    chords, guitar, bass, and drum tabs
                                    from Ultimate-Guitar.com database.

                                    Type "ultimate guitar tabs" in Apple
                                    App Store's or Android Market's
                                    search to find the application.
A TASTE OF HONEY


The Ventures

  INTRO

e|---------------------------------|-------------------2-----4-4-4---|
B|---------------------------------|---------------------------------|
G|---------------------------------|---------------------------------|
D|---------------------------------|---------------------------------|
A|---------------------------------|---------------------------------|
E|---------------------------------|---------------------------------|


   D
e|-5-5-5-5-5-5-5-5.................|.................7-7-7-7-5-5-5-5-|
B|---------------------------------|---------------------------------|
G|---------------------------------|---------------------------------|
D|---------------------------------|---------------------------------|
A|---------------------------------|---------------------------------|
E|---------------------------------|---------------------------------|

e|---------------------------------|---------------------------------|
B|---7-----------------------------|---------------------------------|
G|--7------------------------------|---------------------------------|
D|-7-------------------------------|---------------------------------|
A|5--------------------------------|---------------------------------|
E|---------------------------------|---------------------------------|


   C#m
e|-4-4-4-4-4-4-4-4.................|.................----------------|
B|---------------------------------|-----------------5-5-5-5-5-5-5-5-|
G|---------------------------------|---------------------------------|
D|---------------------------------|---------------------------------|
A|---------------------------------|---------------------------------|
E|---------------------------------|---------------------------------|

e|----4----------------------------|---------------------------------|
B|---5-----------------------------|---------------------------------|
G|--6------------------------------|---------------------------------|
D|-6-------------------------------|---------------------------------|
A|4--------------------------------|---------------------------------|
E|---------------------------------|---------------------------------|

                                     X       X   x   X   x   X   x
   F#m
e|---------------------------------|---------------------------------|
B|-7-7-7---------------------------|---------------------------------|
G|---------------------------------|---------------------------------|
D|---------------------------------|---------------------------------|
A|---------------------------------|---------------------------------|
E|---------------------------------|---------------------------------|

e|-----2---------------------------|---------------------------------|
B|----2----------------------------|---------------------------------|
G|---2-----------------------------|---------------------------------|
D|--4------------------------------|---------------------------------|
A|-4-------------------------------|---------------------------------|
E|2--------------------------------|---------------------------------|


   X X X X X X X X X X X X X X X X
e|---------------------------------|---------------------------------|
B|---------------------------------|---------------------------------|
G|---------------------------------|---------------------------------|
D|---------------------------------|---------------------------------|
A|---------------------------------|---------------------------------|
E|---------------------------------|---------------------------------|

e|---------------------------------|
B|---------------------------------|
G|---------------------------------|
D|---------------------------------|
A|-------------------------------4-|
E|---------------------------------|

  VERSE


   F#m
e|---------------------------------|---------------------------------|
B|---------------------------------|---------------------------------|
G|---------------------------------|-6-----------------------6---8---|
D|-4-----------------------------4-|---------------------4-----------|
A|-----------------------------4---|---------------------------------|
E|---------------------------------|---------------------------------|


                                     B
e|---------------------------------|---------------------------------|
B|-----------------------------7---|---------------------------------|
G|-9-------------------------------|-9-8-6---------------------------|
D|---------------------------------|---------------------------------|
A|---------------------------------|-------------------------------4-|
E|---------------------------------|---------------------------------|


   F#m
e|---------------------------------|---------------------------------|
B|---------------------------------|---------------------------------|
G|---------------------------------|-6-----------------------6---8---|
D|-4-----------------------------4-|---------------------4-----------|
A|-----------------------------4---|---------------------------------|
E|---------------------------------|---------------------------------|


                                     B
e|---------------------------------|---------------------------------|
B|-----------------------------7---|-----------------------------5---|
G|-9-------------------------------|-9-8-6-------------------6-------|
D|---------------------------------|---------------------------------|
A|---------------------------------|---------------------------------|
E|---------------------------------|---------------------------------|


   F#m
e|---------------------------------|---------------------------------|
B|-7-5-7---------------------------|---------------------------------|
G|-----------------6-4-6-----------|-4-2-4---------------------------|
D|---------------------------------|---------------------------------|
A|---------------------------------|---------------------------------|
E|---------------------------------|---------------------------------|


   A                                 C#7
e|---------------------------------|---------------------------------|
B|---------------------------------|---------------------------------|
G|-9-----------6-------------------|-4-------------------------------|
D|---------------------------------|-------------6-----------2-------|
A|---------------------------------|---------------------------------|
E|---------------------------------|---------------------------------|


   F#m             Bm                F#m
e|---------------------------------|-2-W-----------------------------|
B|---------------------------------|-2-W-----------------------------|
G|-----------------4-------4-------|-2-W-----------------------------|
D|-4-------------------------------|---------------------------------|
A|---------------------------------|-------------------------------4-|
E|---------------------------------|---------------------------------|

  VERSE


   F#m
e|---------------------------------|---------------------------------|
B|---------------------------------|---------------------------------|
G|---------------------------------|-6-----------------------6---8---|
D|-4-----------------------------4-|---------------------4-----------|
A|-----------------------------4---|---------------------------------|
E|---------------------------------|---------------------------------|


                                     B
e|---------------------------------|---------------------------------|
B|-----------------------------7---|---------------------------------|
G|-9-------------------------------|-9-8-6---------------------------|
D|---------------------------------|---------------------------------|
A|---------------------------------|-------------------------------4-|
E|---------------------------------|---------------------------------|


   F#m
e|---------------------------------|---------------------------------|
B|---------------------------------|---------------------------------|
G|---------------------------------|-6-----------------------6---8---|
D|-4-----------------------------4-|---------------------4-----------|
A|-----------------------------4---|---------------------------------|
E|---------------------------------|---------------------------------|


                                     B
e|---------------------------------|---------------------------------|
B|-----------------------------7---|-----------------------------5---|
G|-9-------------------------------|-9-8-6-------------------6-------|
D|---------------------------------|---------------------------------|
A|---------------------------------|---------------------------------|
E|---------------------------------|---------------------------------|


   F#m
e|---------------------------------|---------------------------------|
B|-7-5-7---------------------------|---------------------------------|
G|-----------------6-4-6-----------|-4-2-4---------------------------|
D|---------------------------------|---------------------------------|
A|---------------------------------|---------------------------------|
E|---------------------------------|---------------------------------|


   A                                 C#7
e|---------------------------------|---------------------------------|
B|---------------------------------|---------------------------------|
G|-9-----------6-------------------|-4-------------------------------|
D|---------------------------------|-------------6-----------2-------|
A|---------------------------------|---------------------------------|
E|---------------------------------|---------------------------------|


   F#m             Bm                F#m
e|---------------------------------|-2-------------------------------|
B|---------------------------------|-2-------------------------------|
G|-----------------4-------4-------|-2-------------------------------|
D|-4-------------------------------|---------------------------------|
A|---------------------------------|---------------------------------|
E|---------------------------------|---------------------------------|

  BRIDGE


   F#m7                              B
e|---------12------12--11----------|-9-------------------------------|
B|---------------------------------|---------12----------------------|
G|---------------------------------|---------------------------------|
D|---------------------------------|---------------------------------|
A|---------------------------------|---------------------------------|
E|---------------------------------|---------------------------------|


   F#m                               B
e|---------9-------9---7-------5---|-7-------------------2---4-4-4---|
B|---------------------------------|---------------------------------|
G|---------------------------------|---------------------------------|
D|---------------------------------|---------------------------------|
A|---------------------------------|---------------------------------|
E|---------------------------------|---------------------------------|


   D
e|-5-5-5-5-5-5-5-5.................|.................7-7-7-7-5-5-5-5-|
B|---------------------------------|---------------------------------|
G|---------------------------------|---------------------------------|
D|---------------------------------|---------------------------------|
A|---------------------------------|---------------------------------|
E|---------------------------------|---------------------------------|

e|---------------------------------|---------------------------------|
B|---7-----------------------------|---------------------------------|
G|--7------------------------------|---------------------------------|
D|-7-------------------------------|---------------------------------|
A|5--------------------------------|---------------------------------|
E|---------------------------------|---------------------------------|


   C#m
e|-4-4-4-4-4-4-4-4.................|.................----------------|
B|---------------------------------|-----------------5-5-5-5-5-5-5-5-|
G|---------------------------------|---------------------------------|
D|---------------------------------|---------------------------------|
A|---------------------------------|---------------------------------|
E|---------------------------------|---------------------------------|

e|----4----------------------------|---------------------------------|
B|---5-----------------------------|---------------------------------|
G|--6------------------------------|---------------------------------|
D|-6-------------------------------|---------------------------------|
A|4--------------------------------|---------------------------------|
E|---------------------------------|---------------------------------|

                                     X       X   x   X   x   X   x
   F#m
e|---------------------------------|---------------------------------|
B|-7-7-7---------------------------|---------------------------------|
G|---------------------------------|---------------------------------|
D|---------------------------------|---------------------------------|
A|---------------------------------|---------------------------------|
E|---------------------------------|---------------------------------|

e|-----2---------------------------|---------------------------------|
B|----2----------------------------|---------------------------------|
G|---2-----------------------------|---------------------------------|
D|--4------------------------------|---------------------------------|
A|-4-------------------------------|---------------------------------|
E|2--------------------------------|---------------------------------|


   X X X X X X X X X X X X X X X X
e|---------------------------------|
B|---------------------------------|
G|---------------------------------|
D|---------------------------------|
A|-------------------------------4-|
E|---------------------------------|

  VERSE


   F#m
e|---------------------------------|---------------------------------|
B|---------------------------------|---------------------------------|
G|---------------------------------|-6-----------------------6---8---|
D|-4-----------------------------4-|---------------------4-----------|
A|-----------------------------4---|---------------------------------|
E|---------------------------------|---------------------------------|


                                     B
e|---------------------------------|---------------------------------|
B|-----------------------------7---|---------------------------------|
G|-9-------------------------------|-9-8-6---------------------------|
D|---------------------------------|---------------------------------|
A|---------------------------------|-------------------------------4-|
E|---------------------------------|---------------------------------|


   F#m
e|---------------------------------|---------------------------------|
B|---------------------------------|---------------------------------|
G|---------------------------------|-6-----------------------6---8---|
D|-4-----------------------------4-|---------------------4-----------|
A|-----------------------------4---|---------------------------------|
E|---------------------------------|---------------------------------|


                                     B
e|---------------------------------|---------------------------------|
B|-----------------------------7---|-----------------------------5---|
G|-9-------------------------------|-9-8-6-------------------6-------|
D|---------------------------------|---------------------------------|
A|---------------------------------|---------------------------------|
E|---------------------------------|---------------------------------|


   F#m
e|---------------------------------|---------------------------------|
B|-7-5-7---------------------------|---------------------------------|
G|-----------------6-4-6-----------|-4-2-4---------------------------|
D|---------------------------------|---------------------------------|
A|---------------------------------|---------------------------------|
E|---------------------------------|---------------------------------|


   A                                 C#7
e|---------------------------------|---------------------------------|
B|---------------------------------|---------------------------------|
G|-9-----------6-------------------|-4-------------------------------|
D|---------------------------------|-------------6-----------2-------|
A|---------------------------------|---------------------------------|
E|---------------------------------|---------------------------------|


   F#m             Bm                F#m
e|---------------------------------|-2-------------------------------|
B|---------------------------------|-2-------------------------------|
G|-----------------4-------4-------|-2-------------------------------|
D|-4-------------------------------|---------------------------------|
A|---------------------------------|-------------------------------4-|
E|---------------------------------|---------------------------------|

  VERSE


   F#m
e|---------------------------------|---------------------------------|
B|---------------------------------|---------------------------------|
G|---------------------------------|-6-----------------------6---8---|
D|-4-----------------------------4-|---------------------4-----------|
A|-----------------------------4---|---------------------------------|
E|---------------------------------|---------------------------------|


                                     B
e|---------------------------------|---------------------------------|
B|-----------------------------7---|---------------------------------|
G|-9-------------------------------|-9-8-6---------------------------|
D|---------------------------------|---------------------------------|
A|---------------------------------|-------------------------------4-|
E|---------------------------------|---------------------------------|


   F#m
e|---------------------------------|---------------------------------|
B|---------------------------------|---------------------------------|
G|---------------------------------|-6-----------------------6---8---|
D|-4-----------------------------4-|---------------------4-----------|
A|-----------------------------4---|---------------------------------|
E|---------------------------------|---------------------------------|


                                     B
e|---------------------------------|---------------------------------|
B|-----------------------------7---|-----------------------------5---|
G|-9-------------------------------|-9-8-6-------------------6-------|
D|---------------------------------|---------------------------------|
A|---------------------------------|---------------------------------|
E|---------------------------------|---------------------------------|


   F#m
e|---------------------------------|---------------------------------|
B|-7-5-7---------------------------|---------------------------------|
G|-----------------6-4-6-----------|-4-2-4---------------------------|
D|---------------------------------|---------------------------------|
A|---------------------------------|---------------------------------|
E|---------------------------------|---------------------------------|


   A                                 C#7
e|---------------------------------|---------------------------------|
B|---------------------------------|---------------------------------|
G|-9-----------6-------------------|-4-------------------------------|
D|---------------------------------|-------------6-----------2-------|
A|---------------------------------|---------------------------------|
E|---------------------------------|---------------------------------|


   F#m             Bm                F#m
e|---------------------------------|-2-------------------------------|
B|---------------------------------|-2-------------------------------|
G|-----------------4-------4-------|-2-------------------------------|
D|-4-------------------------------|---------------------------------|
A|---------------------------------|---------------------------------|
E|---------------------------------|---------------------------------|

  BRIDGE


   F#m7                              B
e|---------12------12--11----------|-9-------------------------------|
B|---------------------------------|---------12----------------------|
G|---------------------------------|---------------------------------|
D|---------------------------------|---------------------------------|
A|---------------------------------|---------------------------------|
E|---------------------------------|---------------------------------|


   F#m                               B
e|---------9-------9---7-------5---|-7-------------------2---4-4-4---|
B|---------------------------------|---------------------------------|
G|---------------------------------|---------------------------------|
D|---------------------------------|---------------------------------|
A|---------------------------------|---------------------------------|
E|---------------------------------|---------------------------------|


   D
e|-5-5-5-5-5-5-5-5.................|.................7-7-7-7-5-5-5-5-|
B|---------------------------------|---------------------------------|
G|---------------------------------|---------------------------------|
D|---------------------------------|---------------------------------|
A|---------------------------------|---------------------------------|
E|---------------------------------|---------------------------------|

e|---------------------------------|---------------------------------|
B|---7-----------------------------|---------------------------------|
G|--7------------------------------|---------------------------------|
D|-7-------------------------------|---------------------------------|
A|5--------------------------------|---------------------------------|
E|---------------------------------|---------------------------------|


   C#m
e|-4-4-4-4-4-4-4-4.................|.................----------------|
B|---------------------------------|-----------------5-5-5-5-5-5-5-5-|
G|---------------------------------|---------------------------------|
D|---------------------------------|---------------------------------|
A|---------------------------------|---------------------------------|
E|---------------------------------|---------------------------------|

e|----4----------------------------|---------------------------------|
B|---5-----------------------------|---------------------------------|
G|--6------------------------------|---------------------------------|
D|-6-------------------------------|---------------------------------|
A|4--------------------------------|---------------------------------|
E|---------------------------------|---------------------------------|

                                     X       X   x   X   x   X   x
   F#m
e|---------------------------------|---------------------------------|
B|-7-7-7---------------------------|---------------------------------|
G|---------------------------------|---------------------------------|
D|---------------------------------|---------------------------------|
A|---------------------------------|---------------------------------|
E|---------------------------------|---------------------------------|

e|-----2---------------------------|---------------------------------|
B|----2----------------------------|---------------------------------|
G|---2-----------------------------|---------------------------------|
D|--4------------------------------|---------------------------------|
A|-4-------------------------------|---------------------------------|
E|2--------------------------------|---------------------------------|


   X X X X X X X X X X X X X X X X
e|---------------------------------|
B|---------------------------------|
G|---------------------------------|
D|---------------------------------|
A|-------------------------------4-|
E|---------------------------------|

  VERSE


   F#m
e|---------------------------------|---------------------------------|
B|---------------------------------|---------------------------------|
G|---------------------------------|-6-------------------------------|
D|-4-----------------------------4-|---------------------------------|
A|-----------------------------4---|-------------------------------5-|
E|---------------------------------|---------------------------------|


   Gm
e|---------------------------------|---------------------------------|
B|---------------------------------|---------------------------------|
G|---------------------------------|-7-------------------------------|
D|-5-----------------------------5-|---------------------------------|
A|-----------------------------5---|-------------------------------5-|
E|---------------------------------|---------------------------------|

e|---------------------------------|---------------------------------|
B|---------------------------------|---------------------------------|
G|---------------------------------|-7-----------------------7---9---|
D|-5-----------------------------5-|---------------------5-----------|
A|-----------------------------5---|---------------------------------|
E|---------------------------------|---------------------------------|


                                     C
e|---------------------------------|---------------------------------|
B|-----------------------------8---|---------------------------------|
G|-10------------------------------|10-9-7---------------------------|
D|---------------------------------|---------------------------------|
A|---------------------------------|-------------------------------5-|
E|---------------------------------|---------------------------------|


   Gm
e|---------------------------------|---------------------------------|
B|---------------------------------|---------------------------------|
G|---------------------------------|-7-----------------------7---9---|
D|-5-----------------------------5-|---------------------5-----------|
A|-----------------------------5---|---------------------------------|
E|---------------------------------|---------------------------------|


                                     C
e|---------------------------------|---------------------------------|
B|-----------------------------8---|-----------------------------6---|
G|-10------------------------------|10-9-7-------------------7-------|
D|---------------------------------|---------------------------------|
A|---------------------------------|---------------------------------|
E|---------------------------------|---------------------------------|


   Gm
e|---------------------------------|---------------------------------|
B|-8-6-8---------------------------|---------------------------------|
G|-----------------7-5-7-----------|-5-3-5---------------------------|
D|---------------------------------|---------------------------------|
A|---------------------------------|---------------------------------|
E|---------------------------------|---------------------------------|


   Bb                                D7
e|---------------------------------|---------------------------------|
B|-6-------------------------------|---------------------------------|
G|-------------7-------------------|-5-------------------------------|
D|---------------------------------|-------------7-------------------|
A|---------------------------------|---------------------------------|
E|---------------------------------|---------------------------------|


   Bb                                D7
e|---------------------------------|---------------------------------|
B|-6-------------------------------|---------------------------------|
G|-------------7-------------------|-5-------------------------------|
D|---------------------------------|-------------7-------------------|
A|---------------------------------|---------------------------------|
E|---------------------------------|---------------------------------|


   Bb                                D7
e|---------------------------------|---------------------------------|
B|-6-------------------------------|---------------------------------|
G|-------------7-------------------|-5-------------------------------|
D|---------------------------------|-------------7-----------3-------|
A|---------------------------------|---------------------------------|
E|---------------------------------|---------------------------------|


   Gm              Cm                Gm
e|---------------------------------|-3-W-----------------------------|
B|---------------------------------|-3-W-----------------------------|
G|-----------------5-------5-------|-3-W-----------------------------|
D|-5-------------------------------|---------------------------------|
A|---------------------------------|---------------------------------|
E|---------------------------------|---------------------------------|
comments
We did not receive enough feedback on this tab! Please rate:
print report bad tab
1 2 3 4 5
I want to post or [tab]
guest
You may want to rate the tab now too:
select rating
Please do not post tabs as comments. Select "correction" instead!