Oops, an error
Loading. Please wait.

A Taste Of Honey Tab

7,847 views 1 this week
no commentswrite comment
1 2 3 4 5
excellent!
x 1
Autoscroll
+/-
esc
set tempo
stop
Contributor
Hey! There's an official Ultimate Guitar app which is ideal
for learning songs when you're away from computer. Get the app
WARNING: You are trying to view
                                    content from Ultimate-Guitar.com
                                    in an unauthorized application,
                                    which is prohibited.

                                    Please use an official Ultimate
                                    Guitar Tabs application for iPhone,
                                    iPad or Android to access legitimate
                                    chords, guitar, bass, and drum tabs
                                    from Ultimate-Guitar.com database.

                                    Type "ultimate guitar tabs" in Apple
                                    App Store's or Android Market's
                                    search to find the application.
           -------------------------------------------------

                    THE VENTURES - A TASTE OF HONEY
                       Bobby Scott / Ric Marlow
                  From WHERE THE ACTION IS, realeased
                           on February, 1966

           -------------------------------------------------






    INTRO

          D
  e|2--4--555555555555555555555555555555555555555557777777755555555|
  B|---------------------------------------------------------------|
  G|---------------------------------------------------------------|
  D|---------------------------------------------------------------|
  A|---------------------------------------------------------------|
  E|---------------------------------------------------------------|

  e|------2--------------------------------------------------------|
  B|------3--------------------------------------------------------|
  G|------2--------------------------------------------------------|
  D|------0--------------------------------------------------------|
  A|---------------------------------------------------------------|
  E|---------------------------------------------------------------|




    C#m
  e|44444444444444444444444444444444444444--------------|
  B|--------------------------------------55555555555555|
  G|----------------------------------------------------|
  D|----------------------------------------------------|
  A|----------------------------------------------------|
  E|----------------------------------------------------|

  e|4---------------------------------------------------|
  B|5---------------------------------------------------|
  G|6---------------------------------------------------|
  D|6---------------------------------------------------|
  A|4---------------------------------------------------|
  E|----------------------------------------------------|




    F#m
  e|----------------------------|
  B|777-------------------------|
  G|----------------------------|
  D|----------------------------|
  A|----------------------------|
  E|----------------------------|

  e|2---------------------------|
  B|2---------------------------|
  G|2---------------------------|
  D|4---------------------------|
  A|4---------------------------|
  E|2---------------------------|





  e|-------------------------------|-------------------------------|
  B|-------------------------------|-------------------------------|
  G|-------------------------------|-------------------------------|
  D|-------------------------------|-------------------------------|
  A|-------------------------------|-----------------------------4-|
  E|-------------------------------|-------------------------------|




    VERSE

    F#m
  e|-------------------------------|-------------------------------|
  B|-------------------------------|-----------------------------4-|
  G|-----------------------------6-|------------------------6------|
  D|4-----------------------4------|---------------------4---------|
  A|---------------------4---------|-------------------------------|
  E|-------------------------------|-------------------------------|




                                    B
  e|-------------------------------|-------------------------------|
  B|5----------------------------7-|-------------------------------|
  G|-------------------------------|8\6--4-------------------------|
  D|-------------------------------|-------------------------------|
  A|-------------------------------|-----------------------------4-|
  E|-------------------------------|-------------------------------|




    F#m
  e|-------------------------------|-------------------------------|
  B|-------------------------------|-----------------------------4-|
  G|-----------------------------6-|------------------------6------|
  D|4-----------------------4------|---------------------4---------|
  A|---------------------4---------|-------------------------------|
  E|-------------------------------|-------------------------------|




                                    B
  e|-------------------------------|-------------------------------|
  B|5----------------------------7-|-----------------------------5-|
  G|-------------------------------|8\6--4------------------6------|
  D|-------------------------------|-------------------------------|
  A|-------------------------------|-------------------------------|
  E|-------------------------------|-------------------------------|




    F#m
  e|-------------------------------|-------------------------------|
  B|7\5--7-------------------------|-------------------------------|
  G|----------------6\4--6---------|-------------------------------|
  D|-------------------------------|7\6--7-------------------------|
  A|-------------------------------|-------------------------------|
  E|-------------------------------|-------------------------------|




         A                               C#7
  e|-------------------------------|-------------------------------|
  B|-------------------------------|-------------------------------|
  G|-----9----------6--------------|-----4-------------------------|
  D|-------------------------------|----------------6--------------|
  A|-------------------------------|------------------------7------|
  E|-------------------------------|-------------------------------|




    F#              B            F#m
  e|-------------------------------|-------------------------------|
  B|-------------------------------|-------------------------------|
  G|----------------4----4---------|-------------------------------|
  D|4----------------------------4-|-------------------------------|
  A|-------------------------------|-----------------------------4-|
  E|-------------------------------|-------------------------------|




    VERSE

    F#m
  e|-------------------------------|-------------------------------|
  B|-------------------------------|-----------------------------4-|
  G|-----------------------------6-|------------------------6------|
  D|4-----------------------4------|---------------------4---------|
  A|---------------------4---------|-------------------------------|
  E|-------------------------------|-------------------------------|




                                    B
  e|-------------------------------|-------------------------------|
  B|5----------------------------7-|-------------------------------|
  G|-------------------------------|8\6--4-------------------------|
  D|-------------------------------|-------------------------------|
  A|-------------------------------|-----------------------------4-|
  E|-------------------------------|-------------------------------|




    F#m
  e|-------------------------------|-------------------------------|
  B|-------------------------------|-----------------------------4-|
  G|-----------------------------6-|------------------------6------|
  D|4-----------------------4------|---------------------4---------|
  A|---------------------4---------|-------------------------------|
  E|-------------------------------|-------------------------------|




                                    B
  e|-------------------------------|-------------------------------|
  B|5----------------------------7-|-----------------------------5-|
  G|-------------------------------|8\6--4------------------6------|
  D|-------------------------------|-------------------------------|
  A|-------------------------------|-------------------------------|
  E|-------------------------------|-------------------------------|




    F#m
  e|-------------------------------|-------------------------------|
  B|7\5--7-------------------------|-------------------------------|
  G|----------------6\4--6---------|-------------------------------|
  D|-------------------------------|7\6--7-------------------------|
  A|-------------------------------|-------------------------------|
  E|-------------------------------|-------------------------------|




         A                               C#7
  e|-------------------------------|-------------------------------|
  B|-------------------------------|-------------------------------|
  G|-----9----------6--------------|-----4-------------------------|
  D|-------------------------------|----------------6--------------|
  A|-------------------------------|------------------------7------|
  E|-------------------------------|-------------------------------|




    F#              B            F#m
  e|-------------------------------|-------------------------------|
  B|-------------------------------|-------------------------------|
  G|----------------4----4---------|-------------------------------|
  D|4----------------------------4-|-------------------------------|
  A|-------------------------------|-------------------------------|
  E|-------------------------------|-------------------------------|




    BRIDGE

    F#m7                            B
  e|--------12------11---9-------11|-------------------------------|
  B|-------------------------------|-----12------------------------|
  G|-------------------------------|-------------------------------|
  D|-------------------------------|-------------------------------|
  A|-------------------------------|-------------------------------|
  E|-------------------------------|-------------------------------|




    F#m                             B
  e|--------9-------9----7-------5-|7-----------------------2---444|
  B|-------------------------------|-------------------------------|
  G|-------------------------------|-------------------------------|
  D|-------------------------------|-------------------------------|
  A|-------------------------------|-------------------------------|
  E|-------------------------------|-------------------------------|




    D
  e|555555555555555555555555555555555555555557777777755555555|
  B|---------------------------------------------------------|
  G|---------------------------------------------------------|
  D|---------------------------------------------------------|
  A|---------------------------------------------------------|
  E|---------------------------------------------------------|

  e|2--------------------------------------------------------|
  B|3--------------------------------------------------------|
  G|2--------------------------------------------------------|
  D|0--------------------------------------------------------|
  A|---------------------------------------------------------|
  E|---------------------------------------------------------|




    C#m
  e|44444444444444444444444444444444444444--------------|
  B|--------------------------------------55555555555555|
  G|----------------------------------------------------|
  D|----------------------------------------------------|
  A|----------------------------------------------------|
  E|----------------------------------------------------|

  e|4---------------------------------------------------|
  B|5---------------------------------------------------|
  G|6---------------------------------------------------|
  D|6---------------------------------------------------|
  A|4---------------------------------------------------|
  E|----------------------------------------------------|




    F#m
  e|----------------------------|
  B|777-------------------------|
  G|----------------------------|
  D|----------------------------|
  A|----------------------------|
  E|----------------------------|

  e|2---------------------------|
  B|2---------------------------|
  G|2---------------------------|
  D|4---------------------------|
  A|4---------------------------|
  E|2---------------------------|





  e|-------------------------------|-------------------------------|
  B|-------------------------------|-------------------------------|
  G|-------------------------------|-------------------------------|
  D|-------------------------------|-------------------------------|
  A|-------------------------------|-----------------------------4-|
  E|-------------------------------|-------------------------------|




    VERSE ...

    BRIDGE ...


                                    F#m
  e|-------------------------------|-------------------------------|
  B|-------------------------------|-------------------------------|
  G|-------------------------------|-------------------------------|
  D|-------------------------------|-------------------------------|
  A|-------------------------------|-----------------------------4-|
  E|-------------------------------|-------------------------------|





  e|-------------------------------|-------------------------------|
  B|-------------------------------|-------------------------------|
  G|-----------------------------6-|-------------------------------|
  D|4-----------------------4------|-------------------------------|
  A|---------------------4---------|-----------------------------5-|
  E|-------------------------------|-------------------------------|




    Gm
  e|-------------------------------|-------------------------------|
  B|-------------------------------|-------------------------------|
  G|-----------------------------7-|-------------------------------|
  D|5-----------------------5------|-------------------------------|
  A|---------------------5---------|-----------------------------5-|
  E|-------------------------------|-------------------------------|




    VERSE

    Gm
  e|-------------------------------|-------------------------------|
  B|-------------------------------|-----------------------------5-|
  G|-----------------------------7-|------------------------7------|
  D|5-----------------------5------|---------------------5---------|
  A|---------------------5---------|-------------------------------|
  E|-------------------------------|-------------------------------|




                                    C
  e|-------------------------------|-------------------------------|
  B|6----------------------------8-|-------------------------------|
  G|-------------------------------|9\7--5-------------------------|
  D|-------------------------------|-------------------------------|
  A|-------------------------------|-----------------------------5-|
  E|-------------------------------|-------------------------------|




    Gm
  e|-------------------------------|-------------------------------|
  B|-------------------------------|-----------------------------5-|
  G|-----------------------------7-|------------------------7------|
  D|5-----------------------5------|---------------------5---------|
  A|---------------------5---------|-------------------------------|
  E|-------------------------------|-------------------------------|




                                    C
  e|-------------------------------|-------------------------------|
  B|6----------------------------8-|-----------------------------6-|
  G|-------------------------------|9\7--5------------------7------|
  D|-------------------------------|-------------------------------|
  A|-------------------------------|-------------------------------|
  E|-------------------------------|-------------------------------|




    Gm
  e|-------------------------------|-------------------------------|
  B|8\6--8-------------------------|-------------------------------|
  G|----------------7\5--7---------|-------------------------------|
  D|-------------------------------|8\7--8-------------------------|
  A|-------------------------------|-------------------------------|
  E|-------------------------------|-------------------------------|




         Bb                              D7
  e|-------------------------------|-------------------------------|
  B|-------------------------------|-------------------------------|
  G|-----10---------7--------------|-----5-------------------------|
  D|-------------------------------|----------------7--------------|
  A|-------------------------------|-------------------------------|
  E|-------------------------------|-------------------------------|




         Bb                              D7
  e|-------------------------------|-------------------------------|
  B|-------------------------------|-------------------------------|
  G|-----10---------7--------------|-----5-------------------------|
  D|-------------------------------|----------------7--------------|
  A|-------------------------------|-------------------------------|
  E|-------------------------------|-------------------------------|




         Bb                              D7
  e|-------------------------------|-------------------------------|
  B|-------------------------------|-------------------------------|
  G|-----10---------7--------------|-----5-------------------------|
  D|-------------------------------|----------------7--------------|
  A|-------------------------------|------------------------8------|
  E|-------------------------------|-------------------------------|




    Gm              C            Gm
  e|-----------------------------3-|-------------------------------|
  B|-----------------------------3-|-------------------------------|
  G|----------------5----5-------3-|-------------------------------|
  D|5----------------------------5-|-------------------------------|
  A|-----------------------------5-|-------------------------------|
  E|-----------------------------3-|-------------------------------|
comments
We did not receive enough feedback on this tab! Please rate:
print report bad tab
1 2 3 4 5
I want to post or [tab]
guest
You may want to rate the tab now too:
select rating
Please do not post tabs as comments. Select "correction" instead!