Oops, an error
Loading. Please wait.

Green Leaves Of Summer Tab

2,690 views 12 this week
3 commentsread comments
1 2 3 4 5
excellent!
x 1
Autoscroll
+/-
esc
set tempo
stop
Contributor
WARNING: You are trying to view
                                    content from Ultimate-Guitar.com
                                    in an unauthorized application,
                                    which is prohibited.

                                    Please use an official Ultimate
                                    Guitar Tabs application for iPhone,
                                    iPad or Android to access legitimate
                                    chords, guitar, bass, and drum tabs
                                    from Ultimate-Guitar.com database.

                                    Type "ultimate guitar tabs" in Apple
                                    App Store's or Android Market's
                                    search to find the application.
        -----------------------------------------------------------

                   THE VENTURES - GREEN LEAVES OF SUMMER
               From THE COLORFUL VENTURES album. Released on
                              October, 1961

        -----------------------------------------------------------









   e|--------------------------0----|-------------------------------|
   B|---------------------0---------|-------------------------------|
   G|----------------0--------------|-------------------------------|
   D|-----------2-------------------|-------------------------------|
   A|------2------------------------|---------------------2---------|
   E|-0-----------------------------|-------------------------------|





      VERSE

      Em                              B
   e|-------------------------------|-------------------------------|
   B|-------------------------------|-------------------------------|
   G|-------------------------------|-------------------------------|
   D|-2-------------------4----2----|-1-----------------------------|
   A|-------------------------------|-----------2---------2---------|
   E|-------------------------------|-------------------------------|




      Em                              D
   e|-------------------------------|-------------------------------|
   B|-------------------------------|-------------------------------|
   G|-------------------------------|-------------------------------|
   D|-2---------4---------5---------|-4-----------------------------|
   A|-------------------------------|-----------5---------5----5----|
   E|-------------------------------|-------------------------------|




      G                               C
   e|-------------------------------|-------------------------------|
   B|-------------------------------|-------------------------------|
   G|-------------------------------|-------------------------------|
   D|-5-------------------4----5----|-7-------------------7---------|
   A|-------------------------------|-----------7-------------------|
   E|-------------------------------|-------------------------------|




      F#                              B
   e|-------------------------------|-------------------------------|
   B|-------------------------------|-------------------------------|
   G|-------------------------------|-------------------------------|
   D|-8-------------------8---------|-9-------------------8----10---|
   A|-----------9-------------------|-------------------------------|
   E|-------------------------------|-------------------------------|




      Em                              Am
   e|-------------------------------|-------------------------------|
   B|-------------------------------|-------------------------------|
   G|-7-------------------5----4----|-------------------------------|
   D|-------------------------------|-7-------------------7----9----|
   A|-------------------------------|-----------7-------------------|
   E|-------------------------------|-------------------------------|




      D                               G
   e|-------------------------------|-------------------------------|
   B|-------------------------------|-------------------------------|
   G|-5-----------------------------|-------------------------------|
   D|---------------------9----7----|-5-------------------5----7----|
   A|-------------------------------|-------------------------------|
   E|-------------------------------|-------------------------------|




 
   e|-------------------------------|-------------------------------|
   B|-------------------------------|-------------------------------|
   G|-------------------------------|-------------------------------|
   D|-9---------7---------5---------|-4---------2---------1---------|
   A|-------------------------------|-------------------------------|
   E|-------------------------------|-------------------------------|




      Em
   e|------0------------------------|-8----7----5-------------------|
   B|-----0-------------------------|----------------8----7----5----|
   G|----0--------------------------|-------------------------------|
   D|---2---------------------------|-------------------------------|
   A|--2----------------------------|-------------------------------|
   E|-0-----------------------------|-------------------------------|





     VERSE


   e|-------------------------------|-------------------------------|
   B|----------------5----7----5----|-4-----------------------------|
   G|-------------------------------|-----------4---------4---------|
   D|-----------2-------------------|-------------------------------|
   A|------2------------------------|-------------------------------|
   E|-0-----------------------------|-------------------------------|





   e|-------------------------------|-------------------------------|
   B|-5---------7---------8---------|-7-----------------------------|
   G|-------------------------------|-----------7---------7---------|
   D|-------------------------------|-------------------------------|
   A|-------------------------------|-------------------------------|
   E|-------------------------------|-------------------------------|





   e|-------------------------------|-5-------------------5---------|
   B|-8-------------------7----8----|-----------5-------------------|
   G|-------------------------------|-------------------------------|
   D|-------------------------------|-------------------------------|
   A|-------------------------------|-------------------------------|
   E|-------------------------------|-------------------------------|





   e|-6-------------------6---------|-7-------------------7----8----|
   B|-----------7-------------------|-------------------------------|
   G|-------------------------------|-------------------------------|
   D|-------------------------------|-------------------------------|
   A|-------------------------------|-------------------------------|
   E|-------------------------------|-------------------------------|





      BRIDGE


   e|-----------10--------10---8----|-----------8---------8---------|
   B|-------------------------------|-------------------------------|
   G|-------------------------------|-------------------------------|
   D|-------------------------------|-------------------------------|
   A|-------------------------------|-------------------------------|
   E|-------------------------------|-------------------------------|





   e|-----------8---------8---------|---7-----------------3----5----|
   B|-------------------------------|--8-------------3--------------|
   G|-------------------------------|-7-----------------------------|
   D|-------------------------------|-------------------------------|
   A|-------------------------------|-------------------------------|
   E|-------------------------------|-------------------------------|





   e|-7---------5-------------------|-------------------------------|
   B|---------------------8---------|-7---------5---------4---------|
   G|-------------------------------|-------------------------------|
   D|-------------------------------|-------------------------------|
   A|-------------------------------|-------------------------------|
   E|-------------------------------|-------------------------------|





   e|-------------------------------|-------------------------------|
   B|-5-----------------------------|-------------------------------|
   G|-------------------------------|-------------------------------|
   D|-------------------------------|-------------------------------|
   A|-------------------------------|---------------------2---------|
   E|-------------------------------|-------------------------------|





      VERSE


   e|-------------------------------|-------------------------------|
   B|-------------------------------|-------------------------------|
   G|-------------------------------|-------------------------------|
   D|-2-------------------4----2----|-1-----------------------------|
   A|-------------------------------|-----------2---------2---------|
   E|-------------------------------|-------------------------------|





   e|-------------------------------|-------------------------------|
   B|-------------------------------|-------------------------------|
   G|-------------------------------|-------------------------------|
   D|-2---------4---------5---------|-4-----------------------------|
   A|-------------------------------|-----------5---------5---------|
   E|-------------------------------|-------------------------------|




      G
   e|-------------------------------|-------------------------------|
   B|-------------------------------|-------------------------------|
   G|-------------------------------|-------------------------------|
   D|-5-------------------4----5----|-7-------------------7---------|
   A|-------------------------------|-----------7-------------------|
   E|-------------------------------|-------------------------------|





   e|-------------------------------|-------------------------------|
   B|-------------------------------|-------------------------------|
   G|-------------------------------|-------------------------------|
   D|-8-------------------8---------|-9-------------------8---10----|
   A|-----------9-------------------|-------------------------------|
   E|-------------------------------|-------------------------------|





   e|-------------------------------|-------------------------------|
   B|-------------------------------|-------------------------------|
   G|-7-------------------5----4----|-------------------------------|
   D|-------------------------------|-7-------------------7----9----|
   A|-------------------------------|-----------7-------------------|
   E|-------------------------------|-------------------------------|





   e|-------------------------------|-------------------------------|
   B|-------------------------------|-------------------------------|
   G|-5-----------------------------|-------------------------------|
   D|---------------------9----7----|-5-------------------5----7----|
   A|-------------------------------|-------------------------------|
   E|-------------------------------|-------------------------------|





   e|-------------------------------|-------------------------------|
   B|-------------------------------|-------------------------------|
   G|-------------------------------|-------------------------------|
   D|-9---------7---------5---------|-4---------2---------1---------|
   A|-------------------------------|-------------------------------|
   E|-------------------------------|-------------------------------|





   e|------0------------------------|---------------------7----8----|
   B|-----0-------------------------|-------------------------------|
   G|----0--------------------------|-------------------------------|
   D|---2---------------------------|-------------------------------|
   A|--2----------------------------|-------------------------------|
   E|-0-----------------------------|-------------------------------|





      BRIDGE


   e|-----------10--------10---8----|-----------8---------8---------|
   B|-------------------------------|-------------------------------|
   G|-------------------------------|-------------------------------|
   D|-------------------------------|-------------------------------|
   A|-------------------------------|-------------------------------|
   E|-------------------------------|-------------------------------|





   e|-----------8---------8---------|---7-----------------3----5----|
   B|-------------------------------|--8-------------3--------------|
   G|-------------------------------|-7-----------------------------|
   D|-------------------------------|-------------------------------|
   A|-------------------------------|-------------------------------|
   E|-------------------------------|-------------------------------|





   e|-7---------5-------------------|-------------------------------|
   B|---------------------8---------|-7---------5---------4---------|
   G|-------------------------------|-------------------------------|
   D|-------------------------------|-------------------------------|
   A|-------------------------------|-------------------------------|
   E|-------------------------------|-------------------------------|





   e|--------------------------0----|-12----------------------------|
   B|---------------------0---------|-------------------------------|
   G|----------------0--------------|-------------------------------|
   D|-----------2-------------------|-------------------------------|
   A|------2------------------------|-------------------------------|
   E|-0-----------------------------|-------------------------------|
comments
We did not receive enough feedback on this tab! Please rate:
print report bad tab
1 2 3 4 5
3 comments total.
0 reply
Cool_Daddy_Cool wrote on August 26 2010, 07:19 pm

thanks, but why is it so spaced out?

0 reply
Cool_Daddy_Cool wrote on August 26 2010, 07:20 pm

Don't you think it flows better this way

e|--------------------------0----|-------------------------------|
B|---------------------0---------|-------------------------------|
G|----------------0--------------|-------------------------------|
D|-----------2-------------------|-------------------------------|
A|------2------------------------|-------------------------------|
E|-0-----------------------------|-------------------------------|

e|-------------------------------|
B|-------------------------------|
G|-------------------------------|
D|----2---4----2----1------------|
A|-2----------------------2------|
E|-------------------------------|

e|-------------------------------|
B|-------------------------------|
G|-------------------------------|
D|--2----4-5-4-------------------|
A|-2------------5----------------|
E|-------------------------------|

e|-------------------------------|
B|-------------------------------|
G|-------------------------------|
D|--5--4-5---7-|7---8---8-9------|
A|-5-------------7----9----------|
E|-------------------------------|

0 reply
Cool_Daddy_Cool wrote on August 26 2010, 07:22 pm

my bad

e|--------------------------0----|-------------------------------|
B|---------------------0---------|-------------------------------|
G|----------------0--------------|-------------------------------|
D|-----------2-------------------|-------------------------------|
A|------2------------------------|-------------------------------|
E|-0-----------------------------|-------------------------------|

e|-------------------------------|
B|-------------------------------|
G|-------------------------------|
D|----2---4----2----1------------|
A|-2----------------------2------|
E|-------------------------------|

e|-------------------------------|
B|-------------------------------|
G|-------------------------------|
D|--2----4-5-4-------------------|
A|-2------------5----------------|
E|-------------------------------|

e|-------------------------------|
B|-------------------------------|
G|-------------------------------|
D|--5--4-5---7--|7-8---8-9-------|
A|-5-----------7-----9-----------|
E|-------------------------------|

I want to post or [tab]
guest
You may want to rate the tab now too:
select rating
Please do not post tabs as comments. Select "correction" instead!