Oops, an error
Loading. Please wait.

Hawaii Five-o Tab

ver2
ver2

Whole song

Interactive

More versions @911Tabs.com
10,806 views 18 this week
1 commentread comment
1 2 3 4 5
excellent!
x 2
Autoscroll
+/-
esc
set tempo
stop
Contributor
WARNING: You are trying to view
                                    content from Ultimate-Guitar.com
                                    in an unauthorized application,
                                    which is prohibited.

                                    Please use an official Ultimate
                                    Guitar Tabs application for iPhone,
                                    iPad or Android to access legitimate
                                    chords, guitar, bass, and drum tabs
                                    from Ultimate-Guitar.com database.

                                    Type "ultimate guitar tabs" in Apple
                                    App Store's or Android Market's
                                    search to find the application.
HAWAII FIVE-O


The Ventures


  INTRO



                                     x x x x x x x x x x x x x x x x
e|---------------------------------|---------------------------------|
B|---------------------------------|---------------------------------|
G|---------------------------------|---------------------------------|
D|---------------------------------|---------------------------------|
A|---------------------------------|---------------------------------|
E|---------------------------------|---------------------------------|




   X                                             X       X       X
e|---------------------------------|---------------------------------|
B|---------------------------------|---------------------------------|
G|---------------------------------|---------------------------------|
D|---------------------------------|---------------------------------|
A|---------------------------------|---------------------------------|
E|---------------------------------|---------------------------------|




   X                                             X       X       X
e|---------------------------------|---------------------------------|
B|---------------------------------|---------------------------------|
G|---------------------------------|---------------------------------|
D|---------------------------------|---------------------------------|
A|---------------------------------|---------------------------------|
E|---------------------------------|---------------------------------|




   X                                             X       X       X
e|---------------------------------|---------------------------------|
B|---------------------------------|---------------------------------|
G|---------------------------------|---------------------------------|
D|---------------------------------|---------------------------------|
A|---------------------------------|---------------------------------|
E|---------------------------------|---------------------------------|




   X
e|---------------------------------|---------------------------------|
B|---------------------------------|---------------------------------| Guitar
G|---------------------------------|---------------------7-------5---|
D|---------------------------------|---------5---5---8---------------|
A|---------------------------------|---------------------------------|
E|---------------------------------|---------------------------------|

e|---------------------------------|-----------------6---10------8---|
B|---------------------------------|---------8---8-------------------| Brass &
G|---------------------------------|---------------------------------| Trumpet
D|---------------------------------|---------------------------------|
A|---------------------------------|---------------------------------|
E|---------------------------------|---------------------------------|





  VERSE


   Cm                                Bb
e|---------------------------------|---------------------------------|
B|---------------------------------|---------------------------------| Guitar
G|---------------------------------|---------------------3-----------|
D|-------------5-------------------|---------5---5---3-----------5---|
A|---------------------------------|---------------------------------|
E|---------------------------------|---------------------------------|

e|---------------------------------|---------------------6-----------|
B|-------------8-------------------|---------8---8---6-----------8---| Brass &
G|---------------------------------|---------------------------------| Trumpet
D|---------------------------------|---------------------------------|
A|---------------------------------|---------------------------------|
E|---------------------------------|---------------------------------|

e|-----11--11--11--11--11------10--|---------------------------------|
B|---------------------------------|---------------------------------| Flute
G|-----12--12--12--12--12------12--|---------------------------------| (8va
D|---------------------------------|---------------------------------| lower)
A|---------------------------------|---------------------------------|
E|---------------------------------|---------------------------------|





   Cm                                D#
e|---------------------------------|---------------------------------|
B|---------------------------------|---------------------------------|
G|---------------------------------|---------------------7-------5---|
D|---------------------------------|---------5---5---8---------------|
A|---------------------------------|---------------------------------|
E|---------------------------------|---------------------------------|

e|---------------------------------|-----------------6---10------8---|
B|---------------------------------|---------8---8-------------------|
G|---------------------------------|---------------------------------|
D|---------------------------------|---------------------------------|
A|---------------------------------|---------------------------------|
E|---------------------------------|---------------------------------|

e|-----11--11------11--11--11------|-11------------------------------|
B|---------------------------------|---------------------------------|
G|-----12--12------12--12--12------|-12------------------------------|
D|---------------------------------|---------------------------------|
A|---------------------------------|---------------------------------|
E|---------------------------------|---------------------------------|





   Cm                                Bb
e|---------------------------------|---------------------------------|
B|-------------8-------------------|---------6---6---------------8---|
G|---------------------------------|-----------------7---------------|
D|---------------------------------|---------------------8-----------|
A|---------------------------------|---------------------------------|
E|---------------------------------|---------------------------------|

e|-------------15------------------|---------13--13--------------15--|
B|---------------------------------|-----------------15--------------|
G|---------------------------------|---------------------15----------|
D|---------------------------------|---------------------------------|
A|---------------------------------|---------------------------------|
E|---------------------------------|---------------------------------|

e|-----11--11------11--11--11------|-10------------------------------|
B|---------------------------------|---------------------------------|
G|-----12--12------12--12--12------|-12------------------------------|
D|---------------------------------|---------------------------------|
A|---------------------------------|---------------------------------|
E|---------------------------------|---------------------------------|





   D#                                G
e|-----11--11------11--11--11------|-10------------------------------|
B|---------------------------------|---------------------------------| Flute
G|-----12--12------12--12--12------|-12------------------------------|
D|---------------------------------|---------------------------------|
A|---------------------------------|---------------------------------|
E|---------------------------------|---------------------------------|




   Cm
e|---------6-----------------------|---------------------------------|
B|-----------------8---6-----------|---------------------------------| Guitar
G|-------------------------8---5---|---------------------------------|
D|---------------------------------|-5-------------------------------|
A|---------------------------------|-----8---6-----------------------|
E|---------------------------------|-------------8-------------------|

e|---------18------15--------------|---------------------------------|
B|---------------------18--16------|---------------------------------| Brass &
G|-----------------------------17--|---------------------------------| Trumpet
D|---------------------------------|-17--15--------------------------|
A|---------------------------------|---------18--15------------------|
E|---------------------------------|---------------------------------|

e|---------------------------------|---------------------11--11------|
B|---------------------------------|---------------------------------| Flute
G|---------------------------------|---------------------12--12------|
D|---------------------------------|---------------------------------|
A|---------------------------------|---------------------------------|
E|---------------------------------|---------------------------------|




   F                                 G#              Bb
e|---------8-----------------------|---------------------------------|
B|-----------------10--8-----------|---------------------------------|
G|-------------------------10--7---|-------------------------7-------|
D|---------------------------------|-10--8-------8-------10----------|
A|---------------------------------|---------11----------------------|
E|---------------------------------|---------------------------------|

e|---------20------17--15--13------|---------------------------------|
B|-----------------------------15--|-13------------------13--15------|
G|---------------------------------|-----15--13--15------------------|
D|---------------------------------|---------------------------------|
A|---------------------------------|---------------------------------|
E|---------------------------------|---------------------------------|

e|-13------------------------------|---------------------------------|
B|-13------------------------------|---------------------------------|
G|---------------------------------|---------------------------------|
D|---------------------------------|---------------------------------|
A|---------------------------------|---------------------------------|
E|---------------------------------|---------------------------------|




   Cm                                G#              Bb
e|---------------------------------|---------------------------------|
B|-------------8-------------------|---------6---6-------------------|
G|---------------------------------|-----------------7---------------|
D|-10------------------------------|---------------------8---10------|
A|---------------------------------|---------------------------------|
E|---------------------------------|---------------------------------|

e|-------------15------------------|---------13--13------------------|
B|-13------------------------------|-----------------15------13------|
G|---------------------------------|---------------------15----------|
D|---------------------------------|---------------------------------|
A|---------------------------------|---------------------------------|
E|---------------------------------|---------------------------------|

e|---------------------11--11------|-11------------------------------|
B|---------------------------------|---------------------------------|
G|---------------------12--12------|-12------------------------------|
D|---------------------------------|---------------------------------|
A|---------------------------------|---------------------------------|
E|---------------------------------|---------------------------------|




   Cm                          G#
e|---------------------------------|---------------------------------|
B|---------------------------------|---------------------------------|
G|---------------------------------|---------------------------------|
D|---------------------10--10------|---------------------------------|
A|-----------------------------11--|---------------------------------|
E|---------------------------------|---------------------------------|

e|---------------------------------|---------------------------------|
B|---------------------13--13------|---------------------------------|
G|-----------------------------13--|---------------------------------|
D|---------------------------------|---------------------------------|
A|---------------------------------|-11------------------------------|
E|---------------------------------|---------------------------------|

e|-----11--11--11--11--11--11------|---------------------------------|
B|-----13--13--13--13--13--13------|---------------------------------|
G|---------------------------------|---------------------------------|
D|---------------------------------|---------------------------------|
A|---------------------------------|---------------------------------|
E|---------------------------------|---------------------------------|





e|---------------------------------|
B|---------------------------------| Guitar &
G|---------------------8-------6---| French Horn
D|---------6---6---9---------------|
A|---------------------------------|
E|---------------------------------|





  VERSE


   C#m                               B
e|---------------------------------|---------------------------------|
B|---------------------------------|---------------------------------| Guitar &
G|---------------------------------|---------------------4-----------| French
D|-------------6-------------------|---------6---6---4-----------6---|  Horn
A|---------------------------------|---------------------------------|
E|---------------------------------|---------------------------------|

e|---------------------------------|---------------------------------|
B|---------5-----------4-----------|-4---4---------------------------| Flute
G|-------------------------6-------|---6-----------------------------|
D|---------------------------------|---------------------------------|
A|---------------------------------|---------------------------------|
E|---------------------------------|---------------------------------|




   C#m                               E
e|---------------------------------|---------------------------------|
B|---------------------------------|---------------------------------|
G|---------------------------------|---------------------8-------6---|
D|---------------------------------|---------6---6---9---------------|
A|---------------------------------|---------------------------------|
E|---------------------------------|---------------------------------|

e|---------------------------------|---------------------------------|
B|---------5-----------4-----------|-9-7-9---------------------------|
G|-------------------------6-------|---------------------------------|
D|---------------------------------|---------------------------------|
A|---------------------------------|---------------------------------|
E|---------------------------------|---------------------------------|




   C#m                               B
e|---------------------------------|---------------------------------|
B|-------------9-------------------|---------7---7---------------9---|
G|---------------------------------|-----------------8---------------|
D|---------------------------------|---------------------9-----------|
A|---------------------------------|---------------------------------|
E|---------------------------------|---------------------------------|

e|---------------------------------|---------------------------------|
B|---------5-----------4-----------|-4---4---------------------------|
G|-------------------------6-------|---6-----------------------------|
D|---------------------------------|---------------------------------|
A|---------------------------------|---------------------------------|
E|---------------------------------|---------------------------------|




   E                                 G#
e|----------67---------6---4-------|---------8-----------8---4-5-7---|
B|---------4-----------------7-5-4-|-------------9---------7---------| Flute
G|---------------------------------|-6---5---------------------------|
D|---------------------------------|---------------------------------|
A|---------------------------------|---------------------------------|
E|---------------------------------|---------------------------------|




   C#m
e|---------7---5---4---------------|---------------------------------|
B|---------------------7---5---4---|-----4---------------------------| Guitar &
G|---------------------------------|-6-----------6-------------------| French
D|---------------------------------|---------6-----------------------|  Horn
A|---------------------------------|---------------------------------|
E|---------------------------------|---------------------------------|

e|-9-------------------------------|---------------------------------|
B|---------------------------------|---------------------9-7-9-7-9-7-| Flute
G|---------------------------------|---------------------------------|
D|---------------------------------|---------------------------------|
A|---------------------------------|---------------------------------|
E|---------------------------------|---------------------------------|




   A                                                 B
e|---------9---7---5---------------|---------------------------------|
B|---------------------8---5-------|---------------------------------|
G|-----------------------------8---|-6-------6---8-------6-----------|
D|---------------------------------|-----9-------------------9-------|
A|---------------------------------|---------------------------------|
E|---------------------------------|---------------------------------|

e|-9-------------------------------|---------------------------------|
B|---------------------------------|---------------------------------|
G|---------------------------------|---------------------------------|
D|---------------------------------|---------------------------------|
A|---------------------------------|---------------------------------|
E|---------------------------------|---------------------------------|




   C#m                               B
e|---------------------------------|---------------------------------|
B|-------------9-------------------|---------7---7-------------------|
G|-6-------------------------------|-----------------8---------------|
D|---------------------------------|---------------------9-------11--|
A|---------------------------------|---------------------------------|
E|---------------------------------|---------------------------------|

e|---------------------------------|---------------------------------|
B|---------5-------------------4---|---------------------------------|
G|-----------------6-------6-------|---------------------------------|
D|---------------------------------|---------------------------------|
A|---------------------------------|---------------------------------|
E|---------------------------------|---------------------------------|




   C#m                         A
e|---------------------------------|---------------------------------|
B|---------------------------------|---------------------------------| Guitar &
G|---------------------------------|---------------------------------| French
D|---------------------------------|---------------------------------|  Horn
A|-----------------------------12--|---------------------------------|
E|---------------------------------|---------------------------------|

e|---------------------------------|---------------------------------|
B|---------------------------------|---------------------------------| Trombone
G|---------------------------------|---------------------------------|
D|-----------------------------7---|---------------------------------|
A|---------------------------------|---------------------------------|
E|-----------------------------5---|---------------------------------|

e|-----------------9---11--12--17--|---------------------------------|
B|---------------9-----------------|---------------------------------| Flute
G|---------6-8-9---------------14--|---------------------------------|
D|---------------------------------|---------------------------------|
A|---------------------------------|---------------------------------|
E|---------------------------------|---------------------------------|





e|---------------------------------|
B|---------------------5-----------| Guitar &
G|-----------------5-----------7---| Trombone
D|---------7---7-------------------|
A|---------------------------------|
E|---------------------------------|





  VERSE


   Dm                                C
e|---------------------------------|---------------------------------|
B|---------------------------------|---------------------------------| Guitar &
G|---------------------------------|---------------------5-----------| Trombone
D|-------------7-------------------|---------7---7---5-----------7---|
A|---------------------------------|---------------------------------|
E|---------------------------------|---------------------------------|

e|---------------------------------|---------------------------------|
B|-------5-6-----5-6---8---6---5---|---------------------------------| French
G|-----7-------7-------------------|---------------------------------|  Horn
D|---------------------------------|---------------------------------|
A|---------------------------------|---------------------------------|
E|---------------------------------|---------------------------------|

e|-----------------10--------------|-8-------------------------------|
B|-----------------10--------------|-8-------------------------------| Brass &
G|-----------------10--------------|-9-------------------------------| Trumpet
D|---------------------------------|---------------------------------|
A|---------------------------------|---------------------------------|
E|---------------------------------|---------------------------------|




   Dm                                F
e|---------------------------------|---------------------------------|
B|---------------------------------|---------------------5-----------|
G|---------------------------------|-----------------5-----------7---|
D|---------------------------------|---------7---7-------------------|
A|---------------------------------|---------------------------------|
E|---------------------------------|---------------------------------|

e|-----------------------------5---|---------------------------------|
B|-------5-6-----5-6---5-----------|---------------------------------|
G|-----7-------7-----------7-------|---------------------------------|
D|---------------------------------|---------------------------------|
A|---------------------------------|---------------------------------|
E|---------------------------------|---------------------------------|

e|-----------------10--------------|-13------------------------------|
B|-----------------10--------------|-13------------------------------|
G|-----------------10--------------|-14------------------------------|
D|---------------------------------|---------------------------------|
A|---------------------------------|---------------------------------|
E|---------------------------------|---------------------------------|




   Dm                                C
e|-------------5-------------------|---------------------------------|
B|---------------------------------|---------8---8---------------10--|
G|---------------------------------|-----------------9---------------|
D|---------------------------------|---------------------10----------|
A|---------------------------------|---------------------------------|
E|---------------------------------|---------------------------------|

e|---------------------------------|---------------------------------|
B|-------5-6-----5-6---8---6---5---|---------------------------------|
G|-----7-------7-------------------|---------------------------------|
D|---------------------------------|---------------------------------|
A|---------------------------------|---------------------------------|
E|---------------------------------|---------------------------------|

e|-----------------10--------------|-8-------------------------------|
B|-----------------10--------------|-8-------------------------------|
G|-----------------10--------------|-9-------------------------------|
D|---------------------------------|---------------------------------|
A|---------------------------------|---------------------------------|
E|---------------------------------|---------------------------------|




   F                                 A
e|---------5-------5---8-----------|---------------------------------|
B|-----6-8-----6-8---------10--8---|---------------------------------| French
G|---------------------------------|-----9-------6-------------------|  Horn
D|---------------------------------|---------------------------------|
A|---------------------------------|---------------------------------|
E|---------------------------------|---------------------------------|

e|-----------------13--------------|---------------------------------|
B|-----------------13--------------|-14------------------------------| Brass &
G|-----------------14--------------|-14------------------------------| Trumpet
D|---------------------------------|-14------------------------------|
A|---------------------------------|---------------------------------|
E|---------------------------------|---------------------------------|




   Dm
e|---------5-----------------------|---------------------------------|
B|---------------------8---6---5---|-----5---------------------------| Guitar &
G|---------------------------------|-7-----------7-------------------| French
D|---------------------------------|---------7-----------------------|  Horn
A|---------------------------------|---------------------------------|
E|---------------------------------|---------------------------------|

e|---------10----------10----------|-10----------10----------10------|
B|---------10----------10----------|-10----------10----------10------| Brass &
G|---------10----------10----------|-10----------10----------10------| Trumpet
D|---------12----------12----------|-12----------12------------------|
A|---------------------------------|---------------------------------|
E|---------------------------------|---------------------------------|




   Bb                                                C
e|---------10----------8-----------|---------------------------------|
B|-------------------------11--9---|-8-------------------------------|
G|---------------------------------|-----10--7---9-------7-----------|
D|---------------------------------|-------------------------10------|
A|---------------------------------|---------------------------------|
E|---------------------------------|---------------------------------|

e|---------10----------10----------|-10----------10----------12------|
B|---------11----------11----------|-11----------11----------13------|
G|---------10----------10----------|-10----------10----------12------|
D|---------12----------12----------|-12----------12------------------|
A|---------------------------------|---------------------------------|
E|---------------------------------|---------------------------------|




   Dm                                C
e|---------------------------------|---------------------------------|
B|-------------10------------------|---------8---8-------------------|
G|-7-------------------------------|-----------------9---------------|
D|---------------------------------|---------------------10------12--|
A|---------------------------------|---------------------------------|
E|---------------------------------|---------------------------------|

e|---------------------------------|-12------------------------------|
B|---------10----------10----------|-13------------------------------|
G|---------10----------10----------|-12------------------------------|
D|---------12----------12----------|---------------------------------|
A|---------------------------------|---------------------------------|
E|---------------------------------|---------------------------------|




   Dm                                C
e|---------------------------------|-------------------------8---10--|
B|---------------------------------|---------8---8-------8-----------| Guitar &
G|---------------------------------|-----------------9---------------| French
D|---------------------------------|---------------------------------|  Horn
A|---------------------------------|---------------------------------|
E|---------------------------------|---------------------------------|





e|-------------------------8-------|---------------------------------|
B|-------------------------8-------|---------------------------------| Trombone
G|-------------------------9-------|---------------------------------|
D|-------------------------8-------|---------------------------------|
A|---------------------------------|---------------------------------|
E|---------------------------------|---------------------------------|

e|---------------------------------|-----------------6---------------|
B|---------------------------------|---------6-----------------------| French
G|---------------------------------|---------------------------------|  Horn
D|---------------------------------|---------------------------------|
A|---------------------------------|---------------------------------|
E|---------------------------------|---------------------------------|

e|---------------------------------|-------------------------8-------|
B|---------------------------------|---------------------------------| Brass &
G|---------------------------------|---------------------------------| Trumpet
D|---------------------------------|---------------------------------|
A|---------------------------------|---------------------------------|
E|---------------------------------|---------------------------------|




                           C         Dm
e|---------------------------------|---------------------------------|
B|---------------------------------|---------------------------------| Trombone
G|-------------------------5-------|-7-------------------------------|
D|-------------------------5-------|-7-------------------------------|
A|---------------------------------|---------------------------------|
E|---------------------------------|---------------------------------|

e|-------------------------3-------|-5-------------------------------|
B|---------------------------------|---------------------------------| French
G|-------------------------5-------|-7-------------------------------|  Horn
D|---------------------------------|---------------------------------|
A|---------------------------------|---------------------------------|
E|---------------------------------|---------------------------------|

e|-10------13------18------20------|-22------------------------------|
B|---------------------------------|---------------------------------| Brass &
G|---------------------------------|---------------------------------| Trumpet
D|---------------------------------|---------------------------------|
A|---------------------------------|---------------------------------|
E|---------------------------------|---------------------------------|

e|---------------------------5-6-8-|-10------------------------------|
B|---------------------5-6-8-------|---------------------------------| Flute
G|-----------------5-7-------------|---------------------------------|
D|---------------------------------|---------------------------------|
A|---------------------------------|---------------------------------|
E|---------------------------------|---------------------------------|





e|---------------------------------|---5-----------------------------|
B|---------------------------------|--6------------------------------| Guitar
G|---------------------------------|-7-------------------------------|
D|---------------------------------|7--------------------------------|
A|---------------------------------|---------------------------------|
E|---------------------------------|---------------------------------|





  OUTRO


                                     Am
e|---------------------------------|---------------------------------|
B|---------------------------------|---------------------5-----------| Guitar
G|---------------------------------|-----------------5-----------7---|
D|---------------------------------|---------7---7-------------------|
A|---------------------------------|---------------------------------|
E|---------------------------------|---------------------------------|

e|---------------------------------|---------------------------------|
B|---------------------------------|---------------------------------| Brass &
G|---------------------------------|---------------------------------| Trumpet
D|---------------------9-------7---|---------------------------------|
A|---------5---5---8---------------|---------------------------------|
E|---------------------------------|---------------------------------|





e|---------------------5-----------|---------------------------------|
B|-----------------6-----------8---|---------------------------------|
G|---------7---7-------------------|---------------------7-------5---|
D|---------------------------------|---------5---5---8---------------|
A|---------------------------------|---------------------------------|
E|---------------------------------|---------------------------------|

e|---------------------------------|-----------------6---10------8---|
B|---------------------------------|---------8---8-------------------|
G|---------------------------------|---------------------------------|
D|---------------------------------|---------------------------------|
A|---------------------------------|---------------------------------|
E|---------------------------------|---------------------------------|





e|---------------------3-----------|---------------------8-----------|
B|-----------------4-----------6---|---------6---8---9-----------11--|
G|---------5---5-------------------|---------------------------------|
D|---------------------------------|---------------------------------|
A|---------------------------------|---------------------------------|
E|---------------------------------|---------------------------------|

e|-----------------11--15------13--|---------13--15--16--20------18--|
B|---------13--13------------------|---------------------------------|
G|---------------------------------|---------------------------------|
D|---------------------------------|---------------------------------|
A|---------------------------------|---------------------------------|
E|---------------------------------|---------------------------------|




           Bb              C                 Dm
           X       X       X         X       X   x   X   x   X   x
e|---------------------------------|---------------------------------|
B|---------11--------------13------|---------15----------------------| Guitar
G|---------------------------------|---------------------------------|
D|---------------------------------|---------------------------------|
A|---------------------------------|---------------------------------|
E|---------------------------------|---------------------------------|

e|---------13--------------15------|---------17----------------------|
B|---------15--------------17------|---------19----------------------| Brass &
G|---------15--------------17------|---------19----------------------| Trumpet
D|---------------------------------|---------------------------------|
A|---------13--------------15------|---------17----------------------|
E|---------------------------------|---------------------------------|

e|---------------------------------|---------------------------------|
B|---------------------------------|---------------------------------| Trombone
G|---------3---------------5-------|---------7-----------------------|
D|---------------------------------|---------------------------------|
A|---------1---------------3-------|---------5-----------------------|
E|---------------------------------|---------------------------------|

e|---------6-----------------------|-----------1012141517182122------|
B|---6-8-9-------------------------|---------------------------------| Flute
G|---------------------------------|---------9-----------------------|
D|---------------------------------|-----------1214161719202324------|
A|---------------------------------|---------------------------------|
E|---------------------------------|---------------------------------|




   X       X X X   X
e|---------------------------------|---------------------------------|
B|---------------------------------|---------------------------------| Guitar
G|---------------------------------|---------------------------------| Brass
D|---------------------------------|---------------------------------| Trombone
A|---------5---5---5---------------|---------------------------------| Trumpet
E|---------------------------------|---------------------------------|
comments
We did not receive enough feedback on this tab! Please rate:
print report bad tab
1 2 3 4 5
1 comment total.
0 reply
cmoon66 wrote on September 8 2009, 09:34 pm

awesome!!! that's great...

I want to post or [tab]
guest
You may want to rate the tab now too:
select rating
Please do not post tabs as comments. Select "correction" instead!