Oops, an error
Loading. Please wait.

I Feel Fine Tab

2,358 views 6 this week
no commentswrite comment
1 2 3 4 5
please rate
Autoscroll
+/-
esc
set tempo
stop
Contributor
Hey! There's an official Ultimate Guitar app which is ideal
for learning songs when you're away from computer. Get the app
WARNING: You are trying to view
                                    content from Ultimate-Guitar.com
                                    in an unauthorized application,
                                    which is prohibited.

                                    Please use an official Ultimate
                                    Guitar Tabs application for iPhone,
                                    iPad or Android to access legitimate
                                    chords, guitar, bass, and drum tabs
                                    from Ultimate-Guitar.com database.

                                    Type "ultimate guitar tabs" in Apple
                                    App Store's or Android Market's
                                    search to find the application.
  I FEEL FINE


  Written by John Lennon


  The Ventures



     INTRO

     
  e|---------------------------------|---------------------------------|
  B|---------------------------------|---------------------------------|
  G|---------------------------------|---------------------------------|
  D|---------------------------------|---------------------------------|
  A|-0---FEEDBACK....................|.................................|
  E|---------------------------------|---------------------------------|



     00:04

     D
  e|---------------------------------|---------------------------------|
  B|---------------------------------|---------------------------------|
  G|-----------------------------12--|-----11--------------11----------|
  D|---------12------12--10----------|-------------14----------14-\----|
  A|-------------------------12------|---------------------------------|
  E|-10------------------------------|---------------------------------|




     C
  e|---------------------------------|---------------------------------|
  B|---------------------------------|---------------------------------|
  G|-----------------------------10--|-----9---------------9-----------|
  D|---------10------10--8-----------|-------------12----------12------|
  A|-------------------------10------|---------------------------------|
  E|-8-------------------------------|---------------------------------|




     G
  e|---------------------------------|---------------------------------|
  B|---------------------------------|---------------------------------|
  G|-----------------------------5---|-----4---------------4-----------|
  D|---------5-------5---3-----------|-------------7-----------7-------|
  A|-------------------------5-------|-----------------------------5---|
  E|-3-------------------------------|---------------------------------|





  e|---------------------------------|---------------------------------|
  B|---------------------------------|---------------------------------|
  G|-----------------------------5---|-----4---------------4-----------|
  D|---------5-------5---3-----------|-------------7-----------7-------|
  A|-------------------------5-------|-----------------------------5---|
  E|-3-------------------------------|---------------------------------|

  e|---------------------------------|---------------------------------|
  B|---------------------------------|---------------------------------|
  G|---------------------------------|---------------------------------|
  D|---------------------------------|-------------------------9---10--|
  A|---------------------------------|---------------------------------|
  E|---------------------------------|---------------------------------|





     VERSE
     00:13

     G
  e|---------------------------------|---------------------------------|
  B|---------------------------------|---------------------------------|
  G|---------10----------------------|---------------------------------|
  D|-12--------------10------9---10--|---------9---10------9---10---11-|
  A|---------------------------------|---------------------------------|
  E|---------------------------------|---------------------------------|





  e|---------------------------------|---------------------------------|
  B|---------------------------------|---------------------------------|
  G|---------10----------------------|---------------------------------|
  D|-12--------------10------9---10--|---------9---10------9---10---11-|
  A|---------------------------------|---------------------------------|
  E|---------------------------------|---------------------------------|




     D
  e|---------------------------------|---------------------------------|
  B|---------------------------------|---------------------------------|
  G|---------------------------------|---------------------------------|
  D|-12------12-~~~~~----------------|---------------------------------|
  A|---------12----------------------|---------------------------------|
  E|---------------------------------|---------------------------------|





     CHORUS
     00:21

     D                                 C
  e|---------------------------------|---------------------------------|
  B|-10------10------10-------9------|-8--------------------------(3)--|
  G|-11------11------11------10------|-9---------------------------3---|
  D|-12------12------12------11------|10---------------5---3---5-------|
  A|---------------------------------|---------------------------------|
  E|---------------------------------|---------------------------------|




     G
  e|---------------------------------|---------------------------------|
  B|---------------------------------|---------------------------------|
  G|-4-------------------------------|---------------------------------|
  D|-5-------------------------------|---------------------9---10--11--|
  A|---------------------------------|---------------------------------|
  E|---------------------------------|---------------------------------|





     VERSE
     00:26 ....


     CHORUS
     00:34 ....



     BRIDGE
     00:39

     G                                 Bm
  e|-3---------------3---3-----------|-2-------------------------------|
  B|-3---------------3---3-----------|-3-------------------------------|
  G|-4---------------4---4-----------|-4-------------------------------|
  D|---------------------------------|-----------------------------9---|
  A|---------------------------------|---------------------------------|
  E|---------------------------------|---------------------------------|




     C                                 D
  e|---------------------------------|---------------------------------|
  B|---------------------------------|---------------------------------|
  G|-------------------------9-------|---------7-----------------------|
  D|-10------10--9---10--9-------12--|-10B12---10B12-----------10--9---|
  A|---------------------------------|---------------------------------|
  E|---------------------------------|---------------------------------|




     G                                 Bm
  e|-3---------------3---------------|-2-------------------------------|
  B|-3---------------3---3-----------|-3-------------------------------|
  G|-4---------------4---4-----------|-4-------------------------------|
  D|---------------------------------|-------------------------10--12--|
  A|---------------------------------|---------------------------------|
  E|---------------------------------|---------------------------------|




     Am                                D
  e|---------------------------------|---------------------------------|
  B|---------------------------------|---------------------------------|
  G|---------------------------------|---------------------------------|
  D|-14------12------10--------------|-----------------9-------10------|
  A|-------------------------10------|-9-------------------------------|
  E|---------------------------------|---------------------------------|





     VERSE
     00:49 ....


     CHORUS
     00:56 ....



     GUITAR SOLO
     01:02

     G
  e|---------------------------------|---------------------------------|
  B|---------6---------------8-------|---------6-----------------------|
  G|5/7-------------7/9--------------|5/7----------7-\-5---3-------5---|
  D|---------------------------------|-------------------------5-------|
  A|---------------------------------|---------------------------------|
  E|---------------------------------|---------------------------------|





  e|---------------------------------|---------------------------------|
  B|---------6---------------8-------|---------6-----------------------|
  G|5/7-------------7/9--------------|5/7----------7-\-5---3-----------|
  D|---------------------------------|-------------------------5-------|
  A|---------------------------------|---------------------------------|
  E|---------------------------------|---------------------------------|




     D
  e|---------------------------------|---------------------------------|
  B|---------------------------------|---------------------------------|
  G|-----------------------------12--|-----11--------------11----------|
  D|---------12------12--10----------|-------------14----------14------|
  A|-------------------------12------|-----------------------------12--|
  E|-10------------------------------|---------------------------------|





     BREAKDOWN
     01:09

     
  e|---------------------------------|---------------------------------|
  B|---------------------------------|---------------------------------|
  G|-----------------------------12--|-----11--------------11----------|
  D|---------12------12--10----------|-------------14----------14------|
  A|-------------------------12------|-----------------------------12--|
  E|-10------------------------------|---------------------------------|




     C
  e|---------------------------------|---------------------------------|
  B|---------------------------------|---------------------------------|
  G|-----------------------------10--|-----9---------------9-----------|
  D|---------10------10--8-----------|-------------12----------12------|
  A|-------------------------10------|-----------------------------10--|
  E|-8-------------------------------|---------------------------------|




     G
  e|---------------------------------|---------------------------------|
  B|---------------------------------|---------------------------------|
  G|-----------------------------5---|-----4---------------4-----------|
  D|---------5-------5---3-----------|-------------7-----------7-------|
  A|-------------------------5-------|-----------------------------5---|
  E|-3-------------------------------|---------------------------------|





  e|---------------------------------|---------------------------------|
  B|---------------------------------|---------------------------------|
  G|-----------------------------5---|-----4---------------4-----------|
  D|---------5-------5---3-----------|-------------7-----------7-------|
  A|-------------------------5-------|-----------------------------5---|
  E|-3-------------------------------|---------------------------------|

  e|---------------------------------|---------------------------------|
  B|---------------------------------|---------------------------------|
  G|---------------------------------|---------------------------------|
  D|---------------------------------|---------------------9---10--11--|
  A|---------------------------------|---------------------------------|
  E|---------------------------------|---------------------------------|





     VERSE
     01:19 ....


     CHORUS
     01:27 ....



     BRIDGE
     01:32

     G                                 Bm
  e|-3---------------3---3-----------|-2-------------------------------|
  B|-3---------------3---3-----------|-3-------------------------------|
  G|-4---------------4---4-----------|-4-------------------------------|
  D|---------------------------------|-----------------------------9---|
  A|---------------------------------|---------------------------------|
  E|---------------------------------|---------------------------------|




     C                                 D
  e|---------------------------------|---------------------------------|
  B|---------------------------------|---------------------------------|
  G|-------------------------9-------|---------7-----------------------|
  D|-10------10--9---10--9-------12--|-10B12---10B12---12P10---10--9---|
  A|---------------------------------|---------------------------------|
  E|---------------------------------|---------------------------------|




     G                                 Bm
  e|-3---------------3---3-----------|-2-------------------------------|
  B|-3---------------3---3-----------|-3-------------------------------|
  G|-4---------------4---4-----------|-4-------------------------------|
  D|---------------------------------|-------------------------10--12--|
  A|---------------------------------|---------------------------------|
  E|---------------------------------|---------------------------------|




     Am                                D
  e|---------------------------------|---------------------------------|
  B|---------------------------------|---------------------------------|
  G|---------------------------------|---------------------------------|
  D|-14------12------10--------------|-----------------9-------10------|
  A|-------------------------10------|-9-------------------------------|
  E|---------------------------------|---------------------------------|





     VERSE
     01:42 ....


     CHORUS
     01:50 ....



     OUTRO
     01:55
 

  e|---------------------------------|---------------------------------|
  B|---------------------------------|---------------------------------|
  G|-----------------------------12--|-----11--------------11----------|
  D|---------12------12--10----------|-------------14----------14------|
  A|-------------------------12------|-----------------------------12--|
  E|-10------------------------------|---------------------------------|




     C
  e|---------------------------------|---------------------------------|
  B|---------------------------------|---------------------------------|
  G|-----------------------------10--|-----9---------------9-----------|
  D|---------10------10--8-----------|-------------12----------12------|
  A|-------------------------10------|-----------------------------10--|
  E|-8-------------------------------|---------------------------------|




     G
  e|---------------------------------|---------------------------------|
  B|---------------------------------|---------------------------------|
  G|-----------------------------5---|-----4---------------4-----------|
  D|---------5-------5---3-----------|-------------7-----------7-------|
  A|-------------------------5-------|-----------------------------5---|
  E|-3-------------------------------|---------------------------------|





  e|---------------------------------|---------------------------------|
  B|---------------------------------|---------------------------------|
  G|-4-~~~---------------------------|---------------------------------|
  D|---------------------------------|---------------------------------|
  A|---------------------------------|---------------------------------|
  E|---------------------------------|---------------------------------|
comments
We did not receive enough feedback on this tab! Please rate:
print report bad tab
1 2 3 4 5
I want to post or [tab]
guest
You may want to rate the tab now too:
select rating
Please do not post tabs as comments. Select "correction" instead!