Oops, an error
Loading. Please wait.

Journey To The Stars Tab

ver2
ver2

Whole song

Interactive

More versions @911Tabs.com
1,407 views 9 this week
no commentswrite comment
1 2 3 4 5
excellent!
x 1
Autoscroll
+/-
esc
set tempo
stop
Contributor
Hey! There's an official Ultimate Guitar app which is ideal
for learning songs when you're away from computer. Get the app
WARNING: You are trying to view
                                    content from Ultimate-Guitar.com
                                    in an unauthorized application,
                                    which is prohibited.

                                    Please use an official Ultimate
                                    Guitar Tabs application for iPhone,
                                    iPad or Android to access legitimate
                                    chords, guitar, bass, and drum tabs
                                    from Ultimate-Guitar.com database.

                                    Type "ultimate guitar tabs" in Apple
                                    App Store's or Android Market's
                                    search to find the application.
JOURNEY TO THE STARS


The Ventures


  INTRO



   X           X   X   X       X     X           X   X   X       X
e|---------------------------------|---------------------------------|
B|---------------------------------|---------------------------------|
G|---------------------------------|---------------------------------|
D|---------------------------------|---------------------------------|
A|---------------------------------|---------------------------------|
E|---------------------------------|---------------------------------|




   X           X   X   X       X     X           X   X   X       X
e|---------------------------------|---------------------------------|
B|---------------------------------|---------------------------------|
G|---------------------------------|---------------------------------|
D|---------------------------------|---------------------------------|
A|---------------------------------|---------------------------------|
E|---------------------------------|---------------------------------|




   X           X   X   X       X     X           X   X   X       X
e|---------------------------------|---------------------------------|
B|---------------------------------|---------------------------------|
G|---------------------------------|---------------------------------|
D|---------------------------------|---------------------------------|
A|---------------------------------|---------------------------------|
E|---------------------------------|---------------------------------|




   X           X   X   X       X     X           X   X   X       X
e|---------------------------------|---------------------------------|
B|---------------------------------|---------------------------------|
G|---------------------------------|-5-------------------------------|
D|-7-------------------------------|-5-------------------------------|
A|-7-------------------------------|-3-------------------------------|
E|-5-------------------------------|---------------------------------|




   X           X   X   X       X     X           X   X   X       X
e|---------------------------------|---------------------------------|
B|---------------------------------|---------------------------------|
G|---------------------------------|---------------------------------|
D|-7-------------------------------|-7-------------------------------|
A|-7-------------------------------|-5-------------------------------|
E|-5-------------------------------|-5-------------------------------|




   X           X   X   X       X     X           X   X   X       X
e|---------------------------------|---------------------------------|
B|---------------------------------|---------------------------------|
G|---------------------------------|-5-----------5---5---5-------5---|
D|-7-----------7---7---7-------7---|-5-----------5---5---5-------5---|
A|-7-----------7---7---7-------7---|-3-----------3---3---3-------3---|
E|-5-----------5---5---5-------5---|---------------------------------|

e|-8---5---8---5---8---5---8---5---|-8---5---8---5---8---5---8---5---|
B|---------------------------------|---------------------------------|
G|---------------------------------|---------------------------------|
D|---------------------------------|---------------------------------|
A|---------------------------------|---------------------------------|
E|---------------------------------|---------------------------------|




   X           X   X   X       X     x x x x x x x x x x x x x x x x
e|---------------------------------|---------------------------------|
B|---------------------------------|---------------------------------|
G|---------------------------------|---------------------------------|
D|-7-----------7---7---7-------7---|-9-------------------------------|
A|-5-----------5---5---5-------5---|-7-------------------------------|
E|---------------------------------|-----------------5-5-5-5-7-7-7-7-|

e|-8---5---8---5---8---5---8---5---|-8---5---8---5---8---------------|
B|---------------------------------|---------------------------------|
G|---------------------------------|---------------------------------|
D|---------------------------------|---------------------------------|
A|---------------------------------|---------------------------------|
E|---------------------------------|---------------------------------|





  VERSE


   Am                                E
e|---------------------------------|---------------------------------|
B|---------------------------------|---------------------------------|
G|---------------------------------|---------------------------------|
D|---------------------------------|---------------------------------|
A|---------------------------------|---------------------------------|
E|-8-8-8-8-8-8-8-8-7-7-7-7-5-5-5-5-|-7-7-7-7-7-7-7-7-5-5-5-5-4-4-4-4-|




   Am                                F6
e|---------------------------------|---------------------------------|
B|---------------------------------|---------------------------------|
G|---------------------------------|---------------------------------|
D|---------------------------------|---------------------------------|
A|---------------------------------|---------------------------------|
E|-5-5-5-5-5-5-5-5-0-0-0-0-0-0-0-0-|-1-1-1-1-1-1-1-1-3-3-3-3-1-1-1-1-|




   E
e|---------------------------------|---------------------------------|
B|---------------------------------|---------------------------------|
G|---------------------------------|---------------------------------|
D|---------------------------------|---------------------------------|
A|---------------------------------|-7-7-7-7-5-5-5-5-----------------|
E|-0-0-0-0-0-0-0-0-4-4-4-4-7-7-7-7-|-----------------8-8-8-8-7-7-7-7-|




   Am                                E
e|---------------------------------|---------------------------------|
B|---------------------------------|---------------------------------|
G|---------------------------------|---------------------------------|
D|---------------------------------|---------------------------------|
A|---------------------------------|---------------------------------|
E|-12-\-\-\-\-\-\-\-\-\-\-\-\-\-\-\|-0---------------5-5-5-5-7-7-7-7-|





  VERSE


   Am                                E
e|---------------------------------|---------------------------------|
B|---------------------------------|---------------------------------|
G|---------------------------------|---------------------------------|
D|---------------------------------|---------------------------------|
A|---------------------------------|---------------------------------|
E|-8-8-8-8-8-8-8-8-7-7-7-7-5-5-5-5-|-7-7-7-7-7-7-7-7-5-5-5-5-4-4-4-4-|




   Am                                F6
e|---------------------------------|---------------------------------|
B|---------------------------------|---------------------------------|
G|---------------------------------|---------------------------------|
D|---------------------------------|---------------------------------|
A|---------------------------------|---------------------------------|
E|-5-5-5-5-5-5-5-5-0-0-0-0-0-0-0-0-|-1-1-1-1-1-1-1-1-3-3-3-3-1-1-1-1-|




   E
e|---------------------------------|---------------------------------|
B|---------------------------------|---------------------------------|
G|---------------------------------|---------------------------------|
D|---------------------------------|---------------------------------|
A|---------------------------------|-7-7-7-7-5-5-5-5-----------------|
E|-0-0-0-0-0-0-0-0-4-4-4-4-7-7-7-7-|-----------------8-8-8-8-7-7-7-7-|





e|---------------------------------|---------------------------------|
B|---------------------------------|---------------------------------|
G|---------------------------------|-5-----------5---5---5-------5---|
D|-7-----------7---7---7-------7---|-5-----------5---5---5-------5---|
A|-7-----------7---7---7-------7---|-3-----------3---3---3-------3---|
E|-5-----------5---5---5-------5---|---------------------------------|

e|-8---5---8---5---8---5---8---5---|-8---5---8---5---8---5---8---5---|
B|---------------------------------|---------------------------------|
G|---------------------------------|---------------------------------|
D|---------------------------------|---------------------------------|
A|---------------------------------|---------------------------------|
E|---------------------------------|---------------------------------|





e|---------------------------------|---------------------------------|
B|---------------------------------|---------------------------------|
G|---------------------------------|-------------------------4-------|
D|-7-----------7---7---7-------7---|-9---------------7---------------|
A|-5-----------5---5---5-------5---|-7-------------------------------|
E|---------------------------------|---------------------------------|

e|-8---5---8---5---8---5---8---5---|-8---5---8---5---8---------------|
B|---------------------------------|---------------------------------|
G|---------------------------------|---------------------------------|
D|---------------------------------|---------------------------------|
A|---------------------------------|---------------------------------|
E|---------------------------------|---------------------------------|





  VERSE


   Am                                E
e|---------------------------------|---------------------------------|
B|---------------------------------|---------------------------------|
G|-5-----------7P5-4---------------|-4-----------5P4-----------------|
D|-------------------------7-------|-----------------7-------6-------|
A|---------------------------------|---------------------------------|
E|---------------------------------|---------------------------------|




   Am                                F6
e|---------------------------------|---------------------------------|
B|---------------------------------|---------------------------------|
G|---------------------------------|---------------------------------|
D|-7-------------------------------|-3-----------3---5---3---5---3---|
A|-----------------7-----------7---|---------------------------------|
E|---------------------------------|---------------------------------|




   E
e|---------------------------------|---------------------------------|
B|---------------------------------|---------------------------------|
G|---------------------------------|-9-------7-------5---------------|
D|-----------------6-------9-------|-------------------------9-------|
A|-7-------------------------------|---------------------------------|
E|---------------------------------|---------------------------------|




   Am                                E
e|---------------------------------|---------------------------------|
B|---------------------------------|---------------------------------|
G|---------------------------------|-------------------------4-------|
D|---------------------------------|-----------------7---------------|
A|---------------------------------|---------------------------------|
E|-12-\-\-\-\-\-\-\-\-\-\-\-\-\-\-\|-0-------------------------------|





  VERSE


   Am                                E
e|---------------------------------|---------------------------------|
B|---------------------------------|---------------------------------|
G|-5-----------7P5-4---------------|-4-----------5P4-----------------|
D|-------------------------7-------|-----------------7-------6-------|
A|---------------------------------|---------------------------------|
E|---------------------------------|---------------------------------|




   Am                                F6
e|---------------------------------|---------------------------------|
B|---------------------------------|---------------------------------|
G|---------------------------------|---------------------------------|
D|-7-------------------------------|-3-----------3---5---3---5---3---|
A|-----------------7-----------7---|---------------------------------|
E|---------------------------------|---------------------------------|




   E
e|---------------------------------|---------------------------------|
B|---------------------------------|---------------------------------|
G|---------------------------------|-9-------7-------5---------------|
D|-----------------6-------9-------|-------------------------9-------|
A|-7----------(7)------------------|---------------------------------|
E|---------------------------------|---------------------------------|




   Am                                A
e|---------------------------------|---------------------------------|
B|---------------------------------|---------------------------------|
G|---------------------------------|---6-----------------------------|
D|-7-------------------------------|--7------------------------------|
A|---------------------------------|-7-------------------------------|
E|---------------------------------|---------------------------------|





  BRIDGE


   D
e|---------------------------------|---------------------------------|
B|-7-------------------------------|--7-------7-------7------10------|
G|---------------------------------|-7-------7-------7---------------|
D|---------------------------------|7-------7-------7----------------|
A|---------------------------------|---------------------------------|
E|---------------------------------|---------------------------------|




   C#
e|---------------------------------|---------------------------------|
B|-9-----------------------6-------|---------------------------------|
G|---------------------------------|-6-------------------------------|
D|---------------------------------|---------------------------------|
A|---------------------------------|---------------------------------|
E|---------------------------------|---------------------------------|




   D
e|---------------------------------|---------------------------------|
B|-7-------------------------------|--7-------7-------7------10------|
G|---------------------------------|-7-------7-------7---------------|
D|---------------------------------|7-------7-------7----------------|
A|---------------------------------|---------------------------------|
E|---------------------------------|---------------------------------|




   C#
e|---------------------------------|---------------------------------|
B|-9-------------------------------|---------------------------------|
G|---------------------------------|---------------------------------|
D|---------------------------------|---------------------------------|
A|---------------------------------|---------------------------------|
E|---------------------------------|---------------------------------|




   F
e|-5-------------------------------|--5-------5-------5------8-------|
B|---------------------------------|-6-------6-------6---------------|
G|---------------------------------|5-------5-------5----------------|
D|---------------------------------|---------------------------------|
A|---------------------------------|---------------------------------|
E|---------------------------------|---------------------------------|




   E
e|-7-------------------------------|---------------------------------|
B|-------------------------9-------|---------------------------------|
G|---------------------------------|-9-------------------------------|
D|---------------------------------|---------------------------------|
A|---------------------------------|---------------------------------|
E|---------------------------------|---------------------------------|




   F
e|-5-------------------------------|--5-------5-------5------8-------|
B|---------------------------------|-6-------6-------6---------------|
G|---------------------------------|5-------5-------5----------------|
D|---------------------------------|---------------------------------|
A|---------------------------------|---------------------------------|
E|---------------------------------|---------------------------------|




   E
e|-7-------------------------------|---------------------------------|
B|---------------------------------|---------------------------------|
G|---------------------------------|---------------------------------|
D|---------------------------------|---------------------------------|
A|---------------------------------|---------------------------------|
E|---------------------------------|---------------------------------|

e|---------------------------------|---------------------------------|
B|---------------------------------|---------------------------------|
G|---------------------------------|---------------------------------|
D|-9---9---9---9---9---9---9---9---|-9-------------------------------|
A|-7---7---7---7---7---7---7---7---|-7-------------------------------|
E|---------------------------------|---------------------------------|





  INTERLUDE


   X           X   X   X       X     X           X   X   X       X
e|---------------------------------|---------------------------------|
B|---------------------------------|---------------------------------|
G|---------------------------------|---------------------------------|
D|---------------------------------|---------------------------------|
A|---------------------------------|---------------------------------|
E|---------------------------------|---------------------------------|




   X           X   X   X       X     X           X   X   X       X
e|---------------------------------|---------------------------------|
B|---------------------------------|---------------------------------|
G|---------------------------------|---------------------------------|
D|---------------------------------|---------------------------------|
A|---------------------------------|---------------------------------|
E|---------------------------------|---------------------------------|





e|---------------------------------|---------------------------------|
B|---------------------------------|---------------------------------|
G|---------------------------------|-5-----------5---5---5-------5---|
D|-7-----------7---7---7-------7---|-5-----------5---5---5-------5---|
A|-7-----------7---7---7-------7---|-3-----------3---3---3-------3---|
E|-5-----------5---5---5-------5---|---------------------------------|

e|-8---5---8---5---8---5---8---5---|-8---5---8---5---8---5---8---5---|
B|---------------------------------|---------------------------------|
G|---------------------------------|---------------------------------|
D|---------------------------------|---------------------------------|
A|---------------------------------|---------------------------------|
E|---------------------------------|---------------------------------|





e|---------------------------------|---------------------------------|
B|---------------------------------|---------------------------------|
G|---------------------------------|-------------------------4-------|
D|-7-----------7---7---7-------7---|-9---------------7---------------|
A|-5-----------5---5---5-------5---|-7-------------------------------|
E|---------------------------------|---------------------------------|

e|-8---5---8---5---8---5---8---5---|-8---5---8---5---8---------------|
B|---------------------------------|---------------------------------|
G|---------------------------------|---------------------------------|
D|---------------------------------|---------------------------------|
A|---------------------------------|---------------------------------|
E|---------------------------------|---------------------------------|





  VERSE


   Am                                E
e|---------------------------------|---------------------------------|
B|---------------------------------|---------------------------------|
G|-5-----------7P5-4---------------|-4-----------5P4-----------------|
D|-------------------------7-------|-----------------7-------6-------|
A|---------------------------------|---------------------------------|
E|---------------------------------|---------------------------------|




   Am                                F6
e|---------------------------------|---------------------------------|
B|---------------------------------|---------------------------------|
G|---------------------------------|---------------------------------|
D|-7-------------------------------|-3-----------3---5---3---5---3---|
A|-----------------7-----------7---|---------------------------------|
E|---------------------------------|---------------------------------|




   E
e|---------------------------------|---------------------------------|
B|---------------------------------|---------------------------------|
G|---------------------------------|-9-------7-------5---------------|
D|-----------------6-------9-------|-------------------------9-------|
A|-7-------------------------------|---------------------------------|
E|---------------------------------|---------------------------------|




   Am                                E
e|---------------------------------|---------------------------------|
B|---------------------------------|---------------------------------|
G|---------------------------------|-------------------------4-------|
D|---------------------------------|-----------------7---------------|
A|---------------------------------|---------------------------------|
E|-12-\-\-\-\-\-\-\-\-\-\-\-\-\-\-\|-0-------------------------------|





  VERSE


   Am                                E
e|---------------------------------|---------------------------------|
B|---------------------------------|---------------------------------|
G|-5-----------7P5-4---------------|-4-----------5P4-----------------|
D|-------------------------7-------|-----------------7-------6-------|
A|---------------------------------|---------------------------------|
E|---------------------------------|---------------------------------|




   Am                               F6
e|---------------------------------|---------------------------------|
B|---------------------------------|---------------------------------|
G|---------------------------------|---------------------------------|
D|-7-------------------------------|-3-----------3---5---3---5---3---|
A|-----------------7-----------7---|---------------------------------|
E|---------------------------------|---------------------------------|




   E
e|---------------------------------|---------------------------------|
B|---------------------------------|---------------------------------|
G|---------------------------------|-9-------7-------5---------------|
D|-----------------6-------9-------|-------------------------9-------|
A|-7----------(7)------------------|---------------------------------|
E|---------------------------------|---------------------------------|





  OUTRO



e|-8---5---8---5---8---5---8---5---|-8---5---8---5---8---5---8---5---|
B|---------------------------------|---------------------------------|
G|---------------------------------|---------------------------------|
D|---------------------------------|---------------------------------|
A|---------------------------------|---------------------------------|
E|---------------------------------|---------------------------------|





e|---------------------------------|-5-------------------------------|
B|---------------------------------|-5-------------------------------|
G|---------------------------------|-6-------------------------------|
D|---------------------------------|-7-------------------------------|
A|-12-\-\-\-\-\-\-\-\-\-\-\-\-\-\-\|---------------------------------|
E|---------------------------------|---------------------------------|

e|-8---5---8---5---8---5---8---5---|---------------------------------|
B|---------------------------------|---------------------------------|
G|---------------------------------|---------------------------------|
D|---------------------------------|---------------------------------|
A|---------------------------------|---------------------------------|
E|---------------------------------|---------------------------------|
comments
We did not receive enough feedback on this tab! Please rate:
print report bad tab
1 2 3 4 5
I want to post or [tab]
guest
You may want to rate the tab now too:
select rating
Please do not post tabs as comments. Select "correction" instead!