Oops, an error
Loading. Please wait.

Kyoto Doll Tab

2,513 views 3 this week
no commentswrite comment
1 2 3 4 5
excellent!
x 1
add to favorites launch autoscroll
font size
0
reset
Autoscroll
+/-
esc
set tempo
stop
Contributor
WARNING: You are trying to view
                                    content from Ultimate-Guitar.com
                                    in an unauthorized application,
                                    which is prohibited.

                                    Please use an official Ultimate
                                    Guitar Tabs application for iPhone,
                                    iPad or Android to access legitimate
                                    chords, guitar, bass, and drum tabs
                                    from Ultimate-Guitar.com database.

                                    Type "ultimate guitar tabs" in Apple
                                    App Store's or Android Market's
                                    search to find the application.
KYOTO DOLL


The Ventures



  INTRO


   Am
e|-0---0---0---0-------0---0---0---|-0---0---0---0-------0---0---0---|
B|-1---1---1---1-------1---1---1---|-1---1---1---1-------1---1---1---|
G|-2---2---2---2-------2---2---2---|-2---2---2---2-------2---2---2---|
D|-2---2---2---2-------2---2---2---|-2---2---2---2-------2---2---2---|
A|-0---0---0---0-------0---0---0---|-0---0---0---0-------0---0---0---|
E|---------------------------------|---------------------------------|





e|-0---0---0---0-------0---0---0---|-0---0---0---0---0---0---0---0---|
B|-1---1---1---1-------1---1---1---|-1---1---1---1---1---1---1---1---|
G|-2---2---2---2-------2---2---2---|-2---2---2---2---2---2---2---2---|
D|-2---2---2---2-------2---2---2---|-2---2---2---2---2---2---2---2---|
A|-0---0---0---0-------0---0---0---|-0---0---0---0---0---0---0---0---|
E|---------------------------------|---------------------------------| ....





  VERSE


   Am
e|---------------------------------|---------------------------------|
B|---------------------------------|---------------------------------|
G|-----------------4-------5-------|-7-------5-------4---------------|
D|-7-------------------------------|-------------------------7-------|
A|---------------------------------|---------------------------------|
E|---------------------------------|---------------------------------|




                                     Dm
e|---------------------------------|---------------------------------|
B|---------------------------------|---------------------------------|
G|---------------------------------|---------------------------------|
D|-7---------------9-------7-------|---------------------------------|
A|---------------------------------|-8-------------------------------|
E|---------------------------------|---------------------------------|




   Am
e|---------------------------------|---------------------------------|
B|---------------------------------|---------------------------------|
G|---------------------------------|---------------------------------|
D|---------------------------------|---------------------------------|
A|-7-------------------------------|-7-----------------------5-------|
E|-------------------------8-------|---------------------------------|




   E
e|---------------------------------|---------------------------------|
B|---------------------------------|---------------------------------|
G|---------------------------------|---------------------------------|
D|---------------------------------|---------------------------------|
A|---------------------------------|---------------------------7-----|
E|-7-----------0-------------------|-------0----2----4----5----------|





  VERSE


   Am
e|---------------------------------|---------------------------------|
B|---------------------------------|---------------------------------|
G|-----------------4-------5-------|-7-------5-------4---------------|
D|-7-------------------------------|-------------------------7-------|
A|---------------------------------|---------------------------------|
E|---------------------------------|---------------------------------|




                                     Dm
e|---------------------------------|---------------------------------|
B|---------------------------------|---------------------------------|
G|---------------------------------|---------------------------------|
D|-7---------------9-------7-------|---------------------------------|
A|---------------------------------|-8-------------------------------|
E|---------------------------------|---------------------------------|




   Am
e|---------------------------------|---------------------------------|
B|---------------------------------|---------------------------------|
G|---------------------------------|---------------------------------|
D|---------------------------------|---------------------------------|
A|-7-------------------------------|-7-------------------------------|
E|-------------------------8-------|-----------------8B10----8B10----|




   E                                 Am
e|---------------------------------|---------------------------------|
B|---------------------------------|---------------------------------|
G|---------------------------------|---------------------------------|
D|---------------------------------|---------------------------------|
A|---------------------------------|---------------------------------|
E|-7-----------7---7----8----7-----|-5-------------------------------|




       X X X   X X X   X X X X X
e|---------------------------------|
B|---------------------------------|
G|---------------------------------|
D|---------------------------------|
A|---------------------------------|
E|---------------------------------|





  BRIDGE


   F
e|-5---------------7-------8-------|-7-----------5-------------------|
B|---------------------------------|-----------------8-------6-------|
G|---------------------------------|---------------------------------|
D|---------------------------------|---------------------------------|
A|---------------------------------|---------------------------------|
E|---------------------------------|---------------------------------|




   E
e|---------------------------------|---------------------------------|
B|-5----------------------------5--|---------------------------------|
G|-------------7---5----7----------|---------------------------------|
D|---------------------------------|---------------------------------|
A|---------------------------------|---------------------------------|
E|---------------------------------|---------------------------------|




   F
e|-5---------------7-------8-------|-10----------8---7-------5-------|
B|---------------------------------|---------------------------------|
G|---------------------------------|---------------------------------|
D|---------------------------------|---------------------------------|
A|---------------------------------|---------------------------------|
E|---------------------------------|---------------------------------|




   Dm                                E
e|/5---------------------/-5-------|---------------------------------|
B|-----------------6---------------|-5-------------------------------|
G|---------------------------------|---------------------------------|
D|---------------------------------|---------------------------------|
A|---------------------------------|---------------------------------|
E|---------------------------------|---------------------------------|




   F
e|-----------------7-------8-------|-10------8H10P8--7---------------|
B|-10------------------------------|-------------------------10------|
G|---------------------------------|---------------------------------|
D|---------------------------------|---------------------------------|
A|---------------------------------|---------------------------------|
E|---------------------------------|---------------------------------|




   E
e|-10----------8-\-7-------5-/-7---|-7-------------------------------|
B|---------------------------------|---------------------------------|
G|---------------------------------|---------------------------------|
D|---------------------------------|---------------------------------|
A|---------------------------------|---------------------------------|
E|---------------------------------|---------------------------------|





e|--5--------------7-------8-------|-10------8H10P8--7H8P7---5-------|
B|-6-------------------------------|---------------------------------|
G|5--------------------------------|---------------------------------|
D|---------------------------------|---------------------------------|
A|---------------------------------|---------------------------------|
E|---------------------------------|---------------------------------|




   Dm                                E               D
e|---------------------5-----------|---------------------------------|
B|-6-----------------------6-------|---------5---------------5-------|
G|---------------------------------|---------------------------------|
D|---------------------------------|---------------------------------|
A|---------------------------------|---------------------------------|
E|---------------------------------|---------------------------------|




   C               B                                        XX
e|---------------------------------|---------------------------------|
B|---------5-------5---------------|---------------------------------|
G|---------------------------------|---------------------------------|
D|---------------------------------|---------------------------------|
A|---------------------------------|---------------------------------|
E|---------------------------------|---------------------------------|




   Am
e|-0---0---0---0-------0---0---0---|-0---0---0---0-------0---0---0---|
B|-1---1---1---1-------1---1---1---|-1---1---1---1-------1---1---1---|
G|-2---2---2---2-------2---2---2---|-2---2---2---2-------2---2---2---|
D|-2---2---2---2-------2---2---2---|-2---2---2---2-------2---2---2---|
A|-0---0---0---0-------0---0---0---|-0---0---0---0-------0---0---0---|
E|---------------------------------|---------------------------------|





  VERSE


   Am
e|---------------------------------|---------------------------------|
B|---------------------------------|---------------------------------|
G|-----------------4-------5-------|-7-------5-------4---------------|
D|-7-------------------------------|-------------------------7-------|
A|---------------------------------|---------------------------------|
E|---------------------------------|---------------------------------|




                                     Dm
e|---------------------------------|---------------------------------|
B|---------------------------------|---------------------------------|
G|---------------------------------|---------------------------------|
D|-7---------------9-------7-------|---------------------------------|
A|---------------------------------|-8-------------------------------|
E|---------------------------------|---------------------------------|




   Am
e|---------------------------------|---------------------------------|
B|---------------------------------|---------------------------------|
G|---------------------------------|---------------------------------|
D|---------------------------------|---------------------------------|
A|-7-------------------------------|-7-----------------------5-------|
E|-------------------------8-------|---------------------------------|




   E
e|---------------------------------|---------------------------------|
B|---------------------------------|---------------------------------|
G|---------------------------------|---------------------------------|
D|---------------------------------|---------------------------------|
A|---------------------------------|---------------------------7-----|
E|-7-------------------------------|-------0----2----4----5----------|





  VERSE


   Am
e|---------------------------------|---------------------------------|
B|---------------------------------|---------------------------------|
G|-----------------4-------5-------|-7-------5-------4---------------|
D|-7-------------------------------|-------------------------7-------|
A|---------------------------------|---------------------------------|
E|---------------------------------|---------------------------------|




                                     Dm
e|---------------------------------|---------------------------------|
B|---------------------------------|---------------------------------|
G|---------------------------------|---------------------------------|
D|-7---------------9-------7-------|---------------------------------|
A|---------------------------------|-8-------------------------------|
E|---------------------------------|---------------------------------|




   Am
e|---------------------------------|---------------------------------|
B|---------------------------------|---------------------------------|
G|---------------------------------|---------------------------------|
D|---------------------------------|---------------------------------|
A|-7-------------------------------|-7---------------5-------3-------|
E|-------------------------8-------|---------------------------------|




   E                                 Am
e|---------------------------------|---------------------------------|
B|---------------------------------|---------------------------------|
G|---------------------------------|---------------------------------|
D|---------------------------------|---------------------------------|
A|---------------------------------|---------------------------------|
E|-7---------------7----8----7-----|-5-------------------------------|




   X X X X X X X X X X X X X   X
e|---------------------------------|
B|---------------------------------|
G|---------------------------------|
D|---------------------------------|
A|---------------------------------|
E|---------------------------------|





  BRIDGE


   F
e|-5---------------7-------8-------|-7-------5-----------------------|
B|---------------------------------|-----------------8-------6-------|
G|---------------------------------|---------------------------------|
D|---------------------------------|---------------------------------|
A|---------------------------------|---------------------------------|
E|---------------------------------|---------------------------------|




   E
e|---------------------------------|---------------------------------|
B|-5----------------------------5--|---------------------------------|
G|-------------7---5----7----------|---------------------------------|
D|---------------------------------|---------------------------------|
A|---------------------------------|---------------------------------|
E|---------------------------------|---------------------------------|




   F
e|-5---------------7-------8-------|-10------8-------7-------5-------|
B|---------------------------------|---------------------------------|
G|---------------------------------|---------------------------------|
D|---------------------------------|---------------------------------|
A|---------------------------------|---------------------------------|
E|---------------------------------|---------------------------------|




   Dm                                E               D
e|---------------------5-----------|---------------------------------|
B|-6-----------------------6-------|---------5---------------5-------|
G|---------------------------------|---------------------------------|
D|---------------------------------|---------------------------------|
A|---------------------------------|---------------------------------|
E|---------------------------------|---------------------------------|




   C               B                                         X
e|---------------------------------|---------------------------------|
B|---------5-------5---------------|---------------------------------|
G|---------------------------------|---------------------------------|
D|---------------------------------|---------------------------------|
A|---------------------------------|---------------------------------|
E|---------------------------------|---------------------------------|




   Am
e|-0---0---0---0-------0---0---0---|-0---0---0---0-------0---0---0---|
B|-1---1---1---1-------1---1---1---|-1---1---1---1-------1---1---1---|
G|-2---2---2---2-------2---2---2---|-2---2---2---2-------2---2---2---|
D|-2---2---2---2-------2---2---2---|-2---2---2---2-------2---2---2---|
A|-0---0---0---0-------0---0---0---|-0---0---0---0-------0---0---0---|
E|---------------------------------|---------------------------------|





  VERSE


   Am
e|---------------------------------|---------------------------------|
B|---------------------------------|---------------------------------|
G|-----------------4-------5-------|-7-------5-------4---------------|
D|-7-------------------------------|-------------------------7-------|
A|---------------------------------|---------------------------------|
E|---------------------------------|---------------------------------|




                                     Dm
e|---------------------------------|---------------------------------|
B|---------------------------------|---------------------------------|
G|---------------------------------|---------------------------------|
D|-7---------------9-------7-------|---------------------------------|
A|---------------------------------|-8-------------------------------|
E|---------------------------------|---------------------------------|




   Am
e|---------------------------------|---------------------------------|
B|---------------------------------|---------------------------------|
G|---------------------------------|---------------------------------|
D|---------------------------------|---------------------------------|
A|-7-------------------------------|-7-----------------------5-------|
E|-------------------------8-------|---------------------------------|




   E
e|---------------------------------|---------------------------------|
B|---------------------------------|---------------------------------|
G|---------------------------------|---------------------------------|
D|---------------------------------|---------------------------------|
A|---------------------------------|---------------------------7-----|
E|-7----(0)------------------------|-------0----2----4----5----------|





  VERSE


   Am
e|---------------------------------|---------------------------------|
B|---------------------------------|---------------------------------|
G|-----------------4-------5-------|-7-------5-------4---------------|
D|-7-------------------------------|-------------------------7-------|
A|---------------------------------|---------------------------------|
E|---------------------------------|---------------------------------|




                                     Dm
e|---------------------------------|---------------------------------|
B|---------------------------------|---------------------------------|
G|---------------------------------|---------------------------------|
D|-7---------------9-------7-------|---------------------------------|
A|---------------------------------|-8-------------------------------|
E|---------------------------------|---------------------------------|




   Am
e|---------------------------------|---------------------------------|
B|---------------------------------|---------------------------------|
G|---------------------------------|---------------------------------|
D|---------------------------------|---------------------------------|
A|-7-------------------------------|-7---------------5-------3-------|
E|-------------------------8-------|---------------------------------|




   E                                 Am
e|---------------------------------|---------------------------------|
B|---------------------------------|---------------------------------|
G|---------------------------------|---------------------------------|
D|---------------------------------|---------------------------------|
A|---------------------------------|---------------------------------|
E|-7---------------7----8----7-----|-5-----------------------7-------|





   OUTRO


   Am
e|---------------------------------|---------------------------------|
B|---------------------------------|---------------------------------|
G|---------------------------------|---------------------------------|
D|---------------------------------|---------------------------------|
A|-7---------------5---------------|-7---------------5---------------|
E|-------------------------8-------|-------------------------8-------|




   E                                 Am
e|---------------------------------|-----------------0---------------|
B|---------------------------------|-----------------1---------------|
G|---------------------------------|-----------------2---------------|
D|---------------------------------|---------------------------------|
A|---------------------------------|---------------------------------|
E|-7----7----7-----7----8----7-----|-5-------------------------------|
comments
We did not receive enough feedback on this tab! Please rate:
print report bad tab
1 2 3 4 5
I want to post or [tab]
guest
You may want to rate the tab now too:
select rating
Please do not post tabs as comments. Select "correction" instead!