Oops, an error
Loading. Please wait.

Out Of Limits Tab

8,334 views 42 this week
3 commentsread comments
1 2 3 4 5
excellent!
x 3
add to favorites launch autoscroll
font size
0
reset
Autoscroll
+/-
esc
set tempo
stop
Contributor
WARNING: You are trying to view
                                    content from Ultimate-Guitar.com
                                    in an unauthorized application,
                                    which is prohibited.

                                    Please use an official Ultimate
                                    Guitar Tabs application for iPhone,
                                    iPad or Android to access legitimate
                                    chords, guitar, bass, and drum tabs
                                    from Ultimate-Guitar.com database.

                                    Type "ultimate guitar tabs" in Apple
                                    App Store's or Android Market's
                                    search to find the application.
OUT OF LIMITS


The Ventures


  INTRO



   X           X   X                 X           X   X
e|-----3---4---3-------3---4---3---|-----3---4---3-------3---4---3---|
B|-5---------------5---------------|-5---------------5---------------|
G|---------------------------------|---------------------------------|
D|---------------------------------|---------------------------------|
A|---------------------------------|---------------------------------|
E|---------------------------------|---------------------------------|




   Em                                G
e|-----3---4---3-------3---4---3---|-----3---4---3-------3---4---3---|
B|-5---------------5---------------|-5---------------5---------------|
G|---------------------------------|---------------------------------|
D|---------------------------------|---------------------------------|
A|---------------------------------|---------------------------------|
E|---------------------------------|---------------------------------|

e|---------------------------------|---------------------------------|
B|---------------------------------|---------------------------------|
G|---------------------------------|---------------------------------|
D|---------------------------------|---------------------------------|
A|---------------------------------|---------------------------------|
E|-0-------------------------------|-3-------------------------------|




   A                                 B
e|-----3---4---3-------3---4---3---|-----3---5---3-------3---5---3---|
B|-5---------------5---------------|-5---------------5---------------|
G|---------------------------------|---------------------------------|
D|---------------------------------|---------------------------------|
A|---------------------------------|---------------------------------|
E|---------------------------------|---------------------------------|

e|---------------------------------|---------------------------------|
B|---------------------------------|---------------------------------|
G|---------------------------------|---------------------------------|
D|---------------------------------|---------------------------------|
A|---------------------------------|---------------------------------|
E|-5-------------------------------|-7-------------------------------|




   Em              G                 A               B
e|-----3---4---3-------3---4---3---|-----3---4---3-------3---5---3---|
B|-5---------------5---------------|-5---------------5---------------|
G|---------------------------------|---------------------------------|
D|---------------------------------|---------------------------------|
A|---------------------------------|---------------------------------|
E|---------------------------------|---------------------------------|

e|---------------------------------|---------------------------------|
B|---------------------------------|---------------------------------|
G|---------------------------------|---------------------------------|
D|---------------------------------|---------------------------------|
A|---------------------------------|---------------------------------|
E|-0---------------3---------------|-5---------------7---------------|




   Em              G                 A               B
e|-----3---4---3-------3---4---3---|-----3---4---3-------3---5---3---|
B|-5---------------5---------------|-5---------------5---------------|
G|---------------------------------|---------------------------------|
D|---------------------------------|---------------------------------|
A|---------------------------------|---------------------------------|
E|---------------------------------|---------------------------------|

e|---------------------------------|---------------------------------|
B|---------------------------------|---------------------------------|
G|---------------------------------|---------------------------------|
D|---------------------------------|---------------------------------|
A|---------------------------------|---------------------------------|
E|-0---------------3---------------|-5---------------7---------------|




   Em              G                 A               B
e|-----3---4---3-------3---4---3---|-----3---4---3-------3---5---3---|
B|-5---------------5---------------|-5---------------5---------------|
G|---------------------------------|---------------------------------|
D|---------------------------------|---------------------------------|
A|---------------------------------|---------------------------------|
E|---------------------------------|---------------------------------|

e|---------------------------------|---------------------------------|
B|---------------------------------|---------------------------------|
G|---------------------------------|---------------------------------|
D|---------------------------------|---------------------------------|
A|---------------------------------|---------------------------------|
E|-0---------------3---------------|-5---------------7---------------|




   N.C.
   x x x x x x x x X X X X X X X X
e|---------------------------------|-----3---4---3-------3---4---3---|
B|---------------------------------|-5---------------5---------------|
G|---------------------------------|---------------------------------|
D|---------------------------------|---------------------------------|
A|---------------------------------|---------------------------------|
E|---------------------------------|---------------------------------|





e|-----3---4---3-------3---4---3---|
B|-5---------------5---------------|
G|---------------------------------|
D|---------------------------------|
A|---------------------------------|
E|---------------------------------|





  VERSE


   Em              G                 A               B
e|---------------------------------|---------------------------------|
B|---------------------------------|---------------------------------|
G|---------------------------------|---------------------------------|
D|-----5---7---5---7-B-----7---5---|-7-B-----7---5---7---5-----------|
A|-7-------------------------------|-------------------------5---7---|
E|---------------------------------|---------------------------------|




   Em              G                 A               B
e|---------------------------------|---------------------------------|
B|---------------------------------|---------------------------------|
G|---------------------------------|---------------------------------|
D|-----5---7---5---7-B-----7---5---|-7-B-----7---5---7---5-----------|
A|/7-------------------------------|-------------------------5---7---|
E|---------------------------------|---------------------------------|




   Em              G                 A               B
e|---------------------------------|---------------------------------|
B|---------------------------------|---------------------------------|
G|---------------------------------|---------------------------------|
D|-----5---7---5---7-B-----7---5---|-7-B-----7---5---7---5-----------|
A|-7-------------------------------|-------------------------5---7---|
E|---------------------------------|---------------------------------|




   G                                 B
e|-3---3-3-3---3-------3---3-------|-7---7-7-7---7-------7---7-------|
B|-3---3-3-3---3-------3---3-------|-7---7-7-7---7-------7---7-------|
G|-4---4-4-4---4-------4---4-------|-8---8-8-8---8-------8---8-------|
D|-5---5-5-5---5-------5---5-------|-9---9-9-9---9-------9---9-------|
A|---------------------------------|---------------------------------|
E|---------------------------------|---------------------------------|





  VERSE


   Em              G                 A               B
e|0--------------------------------|---------------------------------|
B|-0-------------------------------|-----------------------------8---|
G|--0------------------------------|---------------------7---9-------|
D|---2-----------------------------|-----5---7---5--7/9--------------|
A|----2----------------------------|-7-------------------------------|
E|-----0---------------------------|---------------------------------|




   Em              G                 A               B
e|---------------------------------|-----------------12--10----------|
B|-------8-10----8-10----8-10----8-|-10----8-10-\-8----------12--10--|
G|-9-------------------------------|---------------------------------|
D|---------------------------------|---------------------------------|
A|---------------------------------|---------------------------------|
E|---------------------------------|---------------------------------|




   Em              G                 A               B
e|---------5B7-5B7-5---------------|-------3-5B7-----5B7-----5-3-----|
B|-----8-------------8-5---5-------|-5---5-----------------------5---|
G|-9---------------------7-------7-|---7-----------------------------|
D|---------------------------------|---------------------------------|
A|---------------------------------|---------------------------------|
E|---------------------------------|---------------------------------|




   G                                 B
e|-3-------3---3-------3---3-------|-7-----7-7---7-------7---7-------|
B|-3-------3---3-------3---3-------|-7-----7-7---7-------7---7-------|
G|-4-------4---4-------4---4-------|-8-----8-8---8-------8---8-------|
D|-5-------5---5-------5---5-------|-9-----9-9---9-------9---9-------|
A|---------------------------------|---------------------------------|
E|---------------------------------|---------------------------------|





  BRIDGE


   D
e|---------17------17--------------|-17------------------------------|
B|-------------------------19------|-----------------19--------------|
G|---------------------------------|---------------------------------|
D|---------------------------------|---------------------------------|
A|---------------------------------|---------------------------------|
E|---------------------------------|---------------------------------|

e|----5----------------------------|----5----------------------------|
B|---7-----------------------------|---7-----------------------------|
G|--7------------------------------|--7------------------------------|
D|-7-------------------------------|-7-------------------------------|
A|5--------------------------------|5--------------------------------|
E|---------------------------------|---------------------------------|




   F#m
e|---------17------17--------------|-17------------------------------|
B|-------------------------19------|-----------------19--------------|
G|---------------------------------|---------------------------------|
D|---------------------------------|---------------------------------|
A|---------------------------------|---------------------------------|
E|---------------------------------|---------------------------------|

e|-----2---------------------------|-----2---------------------------|
B|----2----------------------------|----2----------------------------|
G|---2-----------------------------|---2-----------------------------|
D|--4------------------------------|--4------------------------------|
A|-4-------------------------------|-4-------------------------------|
E|2--------------------------------|2--------------------------------|




   G
e|---------19------19--------------|-19----------------------19------|
B|-------------------------20------|---------------------------------|
G|---------------------------------|---------------------------------|
D|---------------------------------|---------------------------------|
A|---------------------------------|---------------------------------|
E|---------------------------------|---------------------------------|

e|-----3---------------------------|-----3---------------------------|
B|----3----------------------------|----3----------------------------|
G|---4-----------------------------|---4-----------------------------|
D|--5------------------------------|--5------------------------------|
A|-5-------------------------------|-5-------------------------------|
E|3--------------------------------|3--------------------------------|




   A                                 G
e|-21----------------------21------|-19----------------------22------|
B|---------------------------------|---------------------------------|
G|---------------------------------|---------------------------------|
D|---------------------------------|---------------------------------|
A|---------------------------------|---------------------------------|
E|---------------------------------|---------------------------------|

e|-----5---------------------------|-----3---------------------------|
B|----5----------------------------|----3----------------------------|
G|---6-----------------------------|---4-----------------------------|
D|--7------------------------------|--5------------------------------|
A|-7-------------------------------|-5-------------------------------|
E|5--------------------------------|3--------------------------------|




   A
e|-21------------------------------|---------------------------------|
B|---------------------------------|---------------------------------|
G|---------------------------------|---------------------------------|
D|---------------------------------|---------------------------------|
A|---------------------------------|---------------------------------|
E|---------------------------------|---------------------------------|

e|-----5---------------------------|-5-5-5-5-5-5-5-5-5-5-5-5-5-5-5-5-|
B|----5----------------------------|-5-5-5-5-5-5-5-5-5-5-5-5-5-5-5-5-|
G|---6-----------------------------|-6-6-6-6-6-6-6-6-6-6-6-6-6-6-6-6-|
D|--7------------------------------|-7-7-7-7-7-7-7-7-7-7-7-7-7-7-7-7-|
A|-7-------------------------------|---------------------------------|
E|5--------------------------------|---------------------------------|




   D#
e|---------18------18--------------|-18------------------------------|
B|-------------------------20------|-----------------20--------------|
G|---------------------------------|---------------------------------|
D|---------------------------------|---------------------------------|
A|---------------------------------|---------------------------------|
E|---------------------------------|---------------------------------|

e|----6----------------------------|----6----------------------------|
B|---8-----------------------------|---8-----------------------------|
G|--8------------------------------|--8------------------------------|
D|-8-------------------------------|-8-------------------------------|
A|6--------------------------------|6--------------------------------|
E|---------------------------------|---------------------------------|




   Gm
e|---------18------18--------------|-18------------------------------|
B|-------------------------20------|-----------------20--------------|
G|---------------------------------|---------------------------------|
D|---------------------------------|---------------------------------|
A|---------------------------------|---------------------------------|
E|---------------------------------|---------------------------------|

e|-----3---------------------------|-----3---------------------------|
B|----3----------------------------|----3----------------------------|
G|---3-----------------------------|---3-----------------------------|
D|--5------------------------------|--5------------------------------|
A|-5-------------------------------|-5-------------------------------|
E|3--------------------------------|3--------------------------------|




   G#
e|---------20------20--------------|-20----------------------20------|
B|-------------------------21------|---------------------------------|
G|---------------------------------|---------------------------------|
D|---------------------------------|---------------------------------|
A|---------------------------------|---------------------------------|
E|---------------------------------|---------------------------------|

e|-----4---------------------------|-----4---------------------------|
B|----4----------------------------|----4----------------------------|
G|---5-----------------------------|---5-----------------------------|
D|--6------------------------------|--6------------------------------|
A|-6-------------------------------|-6-------------------------------|
E|4--------------------------------|4--------------------------------|




   Bb                                G#
e|-22----------------------22------|-20----------------------20------|
B|---------------------------------|---------------------------------|
G|---------------------------------|---------------------------------|
D|---------------------------------|---------------------------------|
A|---------------------------------|---------------------------------|
E|---------------------------------|---------------------------------|

e|-----6---------------------------|-----4---------------------------|
B|----6----------------------------|----4----------------------------|
G|---7-----------------------------|---5-----------------------------|
D|--8------------------------------|--6------------------------------|
A|-8-------------------------------|-6-------------------------------|
E|6--------------------------------|4--------------------------------|




   C
e|-20------------------------------|---------------------------------|
B|---------------------------------|---------------------------------|
G|---------------------------------|---------------------------------|
D|---------------------------------|---------------------------------|
A|---------------------------------|---------------------------------|
E|---------------------------------|---------------------------------|

e|----3----------------------------|-3-3-3-3-3-3-3-3-3-3-3-3-3-3-3-3-|
B|---5-----------------------------|-5-5-5-5-5-5-5-5-5-5-5-5-5-5-5-5-|
G|--5------------------------------|-5-5-5-5-5-5-5-5-5-5-5-5-5-5-5-5-|
D|-5-------------------------------|-5-5-5-5-5-5-5-5-5-5-5-5-5-5-5-5-|
A|3--------------------------------|---------------------------------|
E|---------------------------------|---------------------------------|





  INTERLUDE


   N.C.
e|-----4---5---4-------4---5---4---|-----4---5---4-------4---5---4---|
B|-6---------------6---------------|-6---------------6---------------|
G|---------------------------------|---------------------------------|
D|---------------------------------|---------------------------------|
A|---------------------------------|---------------------------------|
E|---------------------------------|---------------------------------|




   Fm              G#                Bb              C
e|-----4---5---4-------4---5---4---|-----4---5---4-------4---5---4---|
B|-6---------------6---------------|-6---------------6---------------|
G|---------------------------------|---------------------------------|
D|---------------------------------|---------------------------------|
A|---------------------------------|---------------------------------|
E|---------------------------------|---------------------------------|

e|---------------------------------|---------------------------------|
B|---------------------------------|---------------------------------|
G|---------------------------------|---------------------------------|
D|---------------------------------|---------------------------------|
A|---------------------------------|---------------------------------|
E|-1---------------4---------------|-6---------------8---------------|




   Fm              G#                Bb              C
e|-----4---5---4-------4---5---4---|-----4---6---4-------4---6---4---|
B|-6---------------6---------------|-6---------------6---------------|
G|---------------------------------|---------------------------------|
D|---------------------------------|---------------------------------|
A|---------------------------------|---------------------------------|
E|---------------------------------|---------------------------------|

e|---------------------------------|---------------------------------|
B|---------------------------------|---------------------------------|
G|---------------------------------|---------------------------------|
D|---------------------------------|---------------------------------|
A|---------------------------------|---------------------------------|
E|-1---------------4---------------|-6---------------8---------------|





  VERSE


   Fm              G#                Bb              C
e|---------------------------------|---------------------4---6---4---|
B|---------------------------------|-----4---6-------6---------------|
G|---------------------------------|-5-------------------------------|
D|---------6---8---8-B-10--8---6---|---------------------------------|
A|-8-------------------------------|---------------------------------|
E|---------------------------------|---------------------------------|




   Fm              G#                Bb              C
e|-6-B-8---6-B-8---6-B-8---6-4-----|---------------4-6---------------|
B|-----------------------------6-4-|-6-----4-6-------------4-6-------|
G|---------------------------------|---------------------------------|
D|---------------------------------|---------------------------------|
A|---------------------------------|---------------------------------|
E|---------------------------------|---------------------------------|




   Fm              G#                Bb              C
e|---------------------13----------|-13----13----13----13----13------|
B|-----9---11--9---11B----11B--11B-|----11B---11B---11B---11B---11B--|
G|-10------------------------------|---------------------------------|
D|---------------------------------|---------------------------------|
A|---------------------------------|---------------------------------|
E|---------------------------------|---------------------------------|




   G#                                C
e|-4-------4---4-------4---4-------|-8-------8---8-------8---8-------|
B|-4-------4---4-------4---4-------|-8-------8---8-------8---8-------|
G|-5-------5---5-------5---5-------|-9-------9---9-------9---9-------|
D|-6-------6---6-------6---6-------|10------10--10------10--10-------|
A|---------------------------------|---------------------------------|
E|---------------------------------|---------------------------------|





  OUTRO


   N.C.
e|-----4---5---4-------4---5---4---|-----4---5---4-------4---5---4---|
B|-6---------------6---------------|-6---------------6---------------|
G|---------------------------------|---------------------------------|
D|---------------------------------|---------------------------------|
A|---------------------------------|---------------------------------|
E|---------------------------------|---------------------------------|





e|-----4---5---4-------4---5---4---|-----4---5---4-------4---5---4---|
B|-6---------------6---------------|-6---------------6---------------|
G|---------------------------------|---------------------------------|
D|---------------------------------|---------------------------------|
A|---------------------------------|---------------------------------|
E|---------------------------------|---------------------------------|





e|-----4---5---4-------4---5---4---|-----4---5---4-------4---5---4---|
B|-6---------------6---------------|-6---------------6---------------|
G|---------------------------------|---------------------------------|
D|---------------------------------|---------------------------------|
A|---------------------------------|---------------------------------|
E|---------------------------------|---------------------------------| ....
comments
We did not receive enough feedback on this tab! Please rate:
1 2 3 4 5
3 comments total.
0 reply
cmoon66 wrote on September 8 2009, 09:45 pm

great tab

0 reply
Wrynn.CZ wrote on January 18 2012, 07:20 am

It was Markets

0 reply
Kraziekhat wrote on October 1 2013, 05:52 am

Yes..it was The Markettes..from 1962.
Great tab. KK.

I want to post or [tab]
guest
You may want to rate the tab now too:
select rating
Please do not post tabs as comments. Select "correction" instead!