Oops, an error
Loading. Please wait.

Perfidia Bass Tab

4,163 views 3 this week
no commentswrite comment
1 2 3 4 5
please rate
add to favorites launch autoscroll
font size
0
reset
Autoscroll
+/-
esc
set tempo
stop
WARNING: You are trying to view
                                    content from Ultimate-Guitar.com
                                    in an unauthorized application,
                                    which is prohibited.

                                    Please use an official Ultimate
                                    Guitar Tabs application for iPhone,
                                    iPad or Android to access legitimate
                                    chords, guitar, bass, and drum tabs
                                    from Ultimate-Guitar.com database.

                                    Type "ultimate guitar tabs" in Apple
                                    App Store's or Android Market's
                                    search to find the application.
Perfidia.btab
Ventures
TablEdited by Poppamies

 tempo 152       |       |        |       |       |       |        
|------------------------4---4---|5-------------------------------|
|--------5---5---7---7-----------|--------------------------------|
|--------------------------------|--------------------------------|
|--------------------------------|--------------------------------|
 
 |       |       |       |        |       |       |       |        
|----------------------------4---|5---5---5-------4---4---4-------|
|--------------------5/----------|--------------------------------|
|--------------------------------|--------------------------------|
|--------------------------------|--------------------------------|
 
 |       |       |       |        |       |       |       |        
|----------------------4---------|5---5-------5-------------------|
|7---7---7---5-------------------|----------------7---7-----------|
|--------------------------------|----------------------------7---|
|--------------------------------|--------------------------------|
 
 |       |       |       |        |       |       |       |        
|--------------------------------|--------------------------------|
|------------7---5---5-----------|------------5---7---7-----------|
|5---5-----------------------5---|3---3-----------------------7---|
|--------------------------------|--------------------------------|
 
 |       |       |       |        |       |       |       |        
|----------------------------4---|5---5-------4-------------------|
|------------7---5---5-----------|----------------7---7-----------|
|5---5---------------------------|----------------------------7---|
|--------------------------------|--------------------------------|
 
 |       |       |       |        |       |       |       |        
|--------------------------------|----------------4---4-----------|
|------------7---5---5-----------|--------6---6-----------6-------|
|5---5-----------------------7---|7---7---------------------------|
|--------------------------------|--------------------------------|
 
 |       |       |       |        |       |       |       |        
|--------------------------------|5---5---------------------------|
|----5---------------------------|------------5---7---7-----------|
|--------8-------7-------5-------|----------------------------7---|
|--------------------------------|--------------------------------|
 
 |       |       |       |        |       |       |       |        
|----------------------------4---|5---5---------------------------|
|------------7---5---5-----------|------------5---7---7-----------|
|5---5---------------------------|----------------------------7---|
|--------------------------------|--------------------------------|
 
 |       |       |       |        |       |       |       |        
|--------------------------------|--------------------------------|
|------------7---5---5-----------|------------5---7---7-----------|
|5---5-----------------------5---|3---3-----------------------7---|
|--------------------------------|--------------------------------|
 
 |       |       |       |        |       |       |       |        
|--------------------------------|--------------------------------|
|------------7---5---5-----------|------------5---3-------7-------|
|5---5-----------------------5---|3---3---7-----------------------|
|--------------------------------|--------------------------------|
 
 |       |       |       |        |       |       |       |        
|----------------5---------------|----------------5---------------|
|------------5-------------------|3---3---7---7-----------7-------|
|3-------7-----------------------|--------------------------------|
|--------------------------------|--------------------------------|
 
 |       |       |       |        |       |       |       |        
|----------------5---------------|------------------------4-------|
|3---3---7---7-----------7-------|--------6---6-------------------|
|--------------------------------|7---------------7---------------|
|--------------------------------|--------------------------------|
 
 |       |       |       |        |       |       |       |        
|------------------------4-------|----------------5---5-----------|
|--------6---6-------------------|3---3---7---7-----------7-------|
|7---------------7---------------|--------------------------------|
|--------------------------------|--------------------------------|
 
 |       |       |       |        |       |       |       |        
|----------------5---------------|----------------4---------------|
|3---3---7---7-----------7-------|--------6---6-----------6-------|
|--------------------------------|7---7---------------------------|
|--------------------------------|--------------------------------|
 
 |       |       |       |        |       |       |       |        
|--------------------------------|--------------------------------|
|----5---------------------------|------------5---7---7-----------|
|--------8-------7-------5-------|3---------------------------7---|
|--------------------------------|--------------------------------|
 
 |       |       |       |        |       |       |       |        
|--------------------------------|--------------------------------|
|------------7---5---5-----------|------------5---7---7-----------|
|5---5-----------------------5---|3---3-----------------------7---|
|--------------------------------|--------------------------------|
 
 |       |       |       |        |       |       |       |        
|--------------------------------|--------------------------------|
|------------7---5---5-----------|------------5-5-7---7-----------|
|5---5-----------------------5---|3---3-----------------------7---|
|--------------------------------|--------------------------------|
 
 |       |       |       |        |       |       |       |        
|--------------------------------|--------------------------------|
|------------7---5---5-----------|------------5-----------7-------|
|5---5-------------------5-------|3-------7-------8---------------|
|--------------------------------|--------------------------------|
 
 |       |       |       |        |       |       |       |        
|--------------------------------|--------------------------------|
|------------5-------5---5-------|--------------------------------|
|3-------------------------------|3-------------------------------|
|--------------------------------|--------------------------------|
 
 |       |       |       |        |       |       |       |        
|--------------------------------|--------------------------------|
|--------------------------------|--------------------------------|
|--------------------------------|--------------------------------|
|--------------------------------|--------------------------------|
 
 |       |       |       |        |       |       |       |        
|--------------------------------|5---5---5-------4---4---4-------|
|------------------------5/--9---|--------------------------------|
|--------------------------------|--------------------------------|
|--------------------------------|--------------------------------|
 
 |       |       |       |        |       |       |       |        
|--------------------------------|7---7---7-------6---6---6-------|
|7---7-------5-----------7/--10--|--------------------------------|
|--------------------------------|--------------------------------|
|--------------------------------|--------------------------------|
 
 |       |       |       |        |       |       |       |        
|----------------------------6---|7---7-------6-------------------|
|9---9---9---7---7-------9-------|----------------9---9-----------|
|--------------------------------|----------------------------9---|
|--------------------------------|--------------------------------|
 
 |       |       |       |        |       |       |       |        
|--------------------------------|--------------------------------|
|------------9---7---7-----------|------------7---9---9-----------|
|7---7-----------------------7---|5---5-----------------------9---|
|--------------------------------|--------------------------------|
 
 |       |       |       |        |       |       |       |        
|--------------------------------|--------------------------------|
|------------9---7---7-----------|------------7---9---9-----------|
|7---7-----------------------7---|5---5-----------------------9---|
|--------------------------------|--------------------------------|
 
 |       |       |       |        |       |       |       |        
|--------------------------------|----------------6---------------|
|------------9---7---------------|--------8---8-----------8-------|
|7---7-------------------7-------|9---9---------------------------|
|--------------------------------|--------------------------------|
 
 |       |       |       |        |       |       |       |        
|--------------------------------|--------------------------------|
|----7---5-----------------------|----------------9---9-----------|
|----------------9-------7-------|5---------------------------9---|
|--------------------------------|--------------------------------|
 
 |       |       |       |        |       |       |       |        
|----------------------------6---|7---7-------6-------------------|
|------------9---7---7-----------|----------------9---9-----------|
|7---7---------------------------|----------------------------9---|
|--------------------------------|--------------------------------|
 
 |       |       |       |        |       |       |       |        
|--------------------------------|--------------------------------|
|------------9---7---7-----------|------------7---9---9-----------|
|7---7-----------------------7---|5---5-----------------------9---|
|--------------------------------|--------------------------------|
 
 |       |       |       |        |       |       |       |        
|--------------------------------|--------------------------------|
|------------9---7---------------|------------7---5-------9---7---|
|7---7-------------------7-------|5-------9-----------------------|
|--------------------------------|--------------------------------|
 
 |       |       |       |        |       |       |       |        
|----------------7---------------|----------------7---7-----------|
|------------7-------------------|5-------9-----9---------9---9---|
|5-------9-----------------------|--------------------------------|
|--------------------------------|--------------------------------|
 
 |       |       |       |        |       |       |       |        
|----------------7---------------|------------------------6-------|
|5---5---9---9-----------9-------|------------8-------------------|
|--------------------------------|9-------------------------------|
|--------------------------------|--------------------------------|
 
 |       |       |       |        |       |       |       |        
|------------------------6-------|----------------7---7-----------|
|------------8-------------------|5---5---9---9-----------9-------|
|9-------------------------------|--------------------------------|
|--------------------------------|--------------------------------|
 
 |       |       |       |        |       |       |       |        
|------------7---7---7-----------|----------------6---------------|
|5-------9---------------9-------|--------8---8-----------8-------|
|--------------------------------|9---9---------------------------|
|--------------------------------|--------------------------------|
 
 |       |       |       |        |       |       |       |        
|--------------------------------|--------------------------------|
|----7---5-------4---------------|------------7---9---9-----------|
|------------------------7-------|5---5-----------------------9---|
|--------------------------------|--------------------------------|
 
 |       |       |       |        |       |       |       |        
|----------------------------6---|7---7-------6-------------------|
|------------9---7---7-----------|----------------9---9-----------|
|7---7---------------------------|----------------------------9---|
|--------------------------------|--------------------------------|
 
 |       |       |       |        |       |       |       |        
|--------------------------------|--------------------------------|
|------------9---7---7-----------|------------7---9---9-----------|
|7---7---------------------------|5---5-----------------------9---|
|--------------------------------|--------------------------------|
 
 |       |       |       |        |       |       |       |        
|------------------------5---6---|7-------7-----------------------|
|------------9---7---7-----------|----------------5-------9---7---|
|7---7---------------------------|--------------------------------|
|--------------------------------|--------------------------------|
 
 |       |       |       |        
|--------------------------------|
|--------------------------------|
|5---5---5---5-------------------|
|--------------------------------|
 

Created with TablEdit http://www.tabledit.com/
comments
We did not receive enough feedback on this tab! Please rate:
1 2 3 4 5
I want to post or [tab]
guest
You may want to rate the tab now too:
select rating
Please do not post tabs as comments. Select "correction" instead!