Oops, an error
Loading. Please wait.

Pretty Woman Tab

6,380 views 15 this week
no commentswrite comment
1 2 3 4 5
excellent!
x 2
Autoscroll
+/-
esc
set tempo
stop
Contributor
Hey! There's an official Ultimate Guitar app which is ideal
for learning songs when you're away from computer. Get the app
WARNING: You are trying to view
                                    content from Ultimate-Guitar.com
                                    in an unauthorized application,
                                    which is prohibited.

                                    Please use an official Ultimate
                                    Guitar Tabs application for iPhone,
                                    iPad or Android to access legitimate
                                    chords, guitar, bass, and drum tabs
                                    from Ultimate-Guitar.com database.

                                    Type "ultimate guitar tabs" in Apple
                                    App Store's or Android Market's
                                    search to find the application.
PRETTY WOMAN


The Ventures


  INTRO


   X   x   X   x   X   x   X   x     X   x   X   x   X   x   X   x

e|---------------------------------|---------------------------------|
B|---------------------------------|---------------------------------|
G|---------------------------------|---------------------------------|
D|---------------------------------|---------------------------------|
A|---------------------------------|---------------------------------|
E|---------------------------------|-------------------------12-\----|




   E
e|---------------------------------|---------------------------------|
B|---------------------------------|---------------------------------|
G|---------------------------------|---------------------------------|
D|-----------------0---------------|---------------------------------|
A|-------------2-------------------|---------------------------------|
E|-0---0---4-----------------------|---------------------------------|





e|---------------------------------|---------------------------------|
B|---------------------------------|---------------------------------|
G|---------------------------------|---------------------------------|
D|-----------------0---------------|---------------------------------|
A|-------------2-------------------|---------------------------------|
E|-0---0---4-----------------------|---------------------------------|





e|---------------------------------|---------------------------------|
B|---------------------------------|---------------------------------|
G|---------------------------------|---------------------------------|
D|-----------------0---4---2---0---|-----------------0---4---2---0---|
A|-------------2-------------------|-------------2-------------------|
E|-0---0---4-----------------------|-0---0---4-----------------------|





e|---------------------------------|---------------------------------|
B|---------------------------------|---------------------------------|
G|---------------------------------|---------------------------------|
D|---------------------------------|---------------------------------|
A|---------------------------------|-------------------------4---4---|
E|---------------------------------|---------------------------------|

e|---------------------------------|---------------------------------|
B|---------------------------------|---------------------------------|
G|---------------------------------|---------------------------------|
D|-----------------0---4---2---0---|-----------------0---4---2---0---|
A|-------------2-------------------|-------------2-------------------|
E|-0---0---4-----------------------|-0---0---4-----------------------|





  VERSE


   A                                 F#m
e|---------------------------------|---------------------------------|
B|---------------------------------|---------------------------------|
G|---------------------------------|---------------------------------|
D|---------------------------------|---------------------------------|
A|-2---0-------------------4---4---|-2-------0---4-----------2---4---|
E|---------------------------------|---------------------------------|




   A                                 F#m
e|---------------------------------|---------------------------------|
B|---------------------------------|---------------------------------|
G|---------------------------------|---------------------------------|
D|---------------------------------|---------------------------------|
A|-2---0-------------------4---4---|-2-------0---4-----------4---4---|
E|---------------------------------|---------------------------------|




   D                                                 E
e|---------------------------------|---------------------------------|
B|---------------------------------|---------------------------------|
G|---------------------------------|---------------------------------|
D|---------------------------------|-----4---4---4---4-------2-------|
A|-2---0---------------------------|---------------------------------|
E|---------------------------------|---------------------------------|





e|---------------------------------|---------------------------------|
B|---------------------------------|---------------------------------|
G|---------------------------------|---------------------------------|
D|-0---0-------2-------------------|-----2---4---4---4-------2-------|
A|---------2-----------------------|---------------------------------|
E|---------------------------------|---------------------------------|





e|---------------------------------|-----------------|
B|---------------------------------|-----------------|
G|---------------------------------|-----------------|
D|-0-----------2-------------------|-----------------|
A|---------2-----------------------|-----------------|
E|---------------------------------|-----------------|





e|---------------------------------|---------------------------------|
B|---------------------------------|---------------------------------|
G|---------------------------------|---------------------------------|
D|-----------------0---4---2---0---|-----------------0---4---2---0---|
A|-------------2-------------------|-------------2-------------------|
E|-0---0---4-----------------------|-0---0---4-----------------------|





e|---------------------------------|---------------------------------|
B|---------------------------------|---------------------------------|
G|---------------------------------|-------------------------6---6---|
D|---------------------------------|---------------------------------|
A|---------------------------------|---------------------------------|
E|---------------------------------|---------------------------------|

e|---------------------------------|---------------------------------|
B|---------------------------------|---------------------------------|
G|---------------------------------|---------------------------------|
D|-----------------0---4---2---0---|-----------------0---4---2---0---|
A|-------------2-------------------|-------------2-------------------|
E|-0---0---4-----------------------|-0---0---4-----------------------|





  VERSE


   A                                 F#m
e|---------------------------------|---------------------------------|
B|---------------------------------|---------------------------------|
G|-4-----------------------6---6---|-4-----------6-----------4---6---|
D|-----7---------------------------|---------7-----------------------|
A|---------------------------------|---------------------------------|
E|---------------------------------|---------------------------------|




   A                                 F#m
e|---------------------------------|---------------------------------|
B|---------------------------------|---------------------------------|
G|-4-----------------------6---6---|-4-----------6-----------6---6---|
D|-----7---------------------------|---------7-----------------------|
A|---------------------------------|---------------------------------|
E|---------------------------------|---------------------------------|




   D                                                 E
e|---------------------------------|---------------------------------|
B|---------------------------------|-----7---7---7---7-------5-------|
G|-4-------------------------------|---------------------------------|
D|-----7---------------------------|---------------------------------|
A|---------------------------------|---------------------------------|
E|---------------------------------|---------------------------------|





e|---------------------------------|---------------------------------|
B|-3-----------5-------------------|-----5---7---7---7-------5-------|
G|---------4-----------------------|---------------------------------|
D|---------------------------------|---------------------------------|
A|---------------------------------|---------------------------------|
E|---------------------------------|---------------------------------|





e|---------------------------------|-----------------|
B|-3---3-------5-------------------|-----------------|
G|---------4-----------------------|-----------------|
D|---------------------------------|-----------------|
A|---------------------------------|-----------------|
E|---------------------------------|-----------------|





e|---------------------------------|---------------------------------|
B|---------------------------------|---------------------------------|
G|---------------------------------|---------------------------------|
D|-----------------0---4---2---0---|-----------------0---4---2---0---|
A|-------------2-------------------|-------------2-------------------|
E|-0---0---4-----------------------|-0---0---4-----------------------|





e|---------------------------------|---------------------------------|
B|---------------------------------|---------------------------------|
G|---------------------------------|---------------------------------|
D|-----------------0---4---2---0---|-----------------9-------9-------|
A|-------------2-------------------|-------------2---7-------7-------|
E|-0---0---4-----------------------|-0---0---4-----------------------|





  BRIDGE


   Dm                                G
e|---------5---5---5-------3-------|-3---1-------1-------------------|
B|---------6---6---6-------5-------|-5---3-------3-------------------|
G|---------------------------------|---------------------------------|
D|-7-------------------------------|---------------------------------|
A|-5-------------------------------|---------------------------------|
E|---------------------------------|---------------------------------|




   C                                 Am
e|---------3---3---3---------------|---------------------------------|
B|---------5---5---5-------6-------|-6---5-------5-------------------|
G|-------------------------7-------|-7---5-------5-------------------|
D|---------------------------------|---------------------------------|
A|---------------------------------|---------------------------------|
E|---------------------------------|---------------------------------|




   Dm                                G
e|---------------------------------|---------------------------------|
B|---------6---6---6-------5-------|-5---3-------1-----------3-------|
G|---------7---7---7-------5-------|-5---4-------2-----------4-------|
D|---------------------------------|---------------------------------|
A|---------------------------------|---------------------------------|
E|---------------------------------|---------------------------------|




   C
e|---------------------------------|---------------------------------|
B|-5-------------------------------|---------------------------------|
G|-5-------------------------------|---------------------------------|
D|---------------------------------|---------------------------------|
A|---------------------------------|---------------------------------|
E|---------------------------------|---------------------------------|




   Dm                                G
e|---------5---5---5-------3-------|-3---1-------3-------------------|
B|---------6---6---6-------5-------|-5---3-------5-------------------|
G|---------------------------------|---------------------------------|
D|---------------------------------|---------------------------------|
A|---------------------------------|---------------------------------|
E|---------------------------------|---------------------------------|




   C                                 Am
e|---------3---3---3---------------|---------------------------------|
B|---------5---5---5-------6-------|-6---5-------5-------------------|
G|-------------------------7-------|-7---5-------5-------------------|
D|---------------------------------|---------------------------------|
A|---------------------------------|---------------------------------|
E|---------------------------------|---------------------------------|




   Dm                                G
e|---------------------------------|---------------------------------|
B|---------6---6---6-------5-------|-5---3-------1-----------3-------|
G|---------7---7---7-------5-------|-5---4-------2-----------4-------|
D|---------------------------------|---------------------------------|
A|---------------------------------|---------------------------------|
E|---------------------------------|---------------------------------|




   C                                 A
e|---------------------------------|---------------------------------|
B|-5-------------------------------|---------------------------------|
G|-5---------------------------5---|-6-----------------------4-------|
D|---------------------------------|-----------------------------7---|
A|---------------------------------|---------------------------------|
E|---------------------------------|---------------------------------|




   F#m                               Dm 
e|---------------------------------|---------------------------------|
B|---------------------------------|---------------------------------|
G|---------------------------------|---------------------------------|
D|-6-------7-----------------------|---------7-------9-------7-------|
A|---------------------------------|---------------------------------|
E|---------------------------------|---------------------------------|




   E                                 A
e|---------------------------------|---------------------------------|
B|---------------------------------|---------------------------------|
G|---------------------------------|---------6-------4---------------|
D|-6-------------------------------|-------------------------7-------|
A|---------------------------------|---------------------------------|
E|---------------------------------|---------------------------------|




   F#m                               Dm 
e|---------------------------------|---------------------------------|
B|---------------------------------|---------------------------------|
G|---------------------------------|---------------------------------|
D|-6-----------7-------------------|---------7-------9-------7-------|
A|---------------------------------|---------------------------------|
E|---------------------------------|---------------------------------|




   E
e|---------------------------------|---------------------------------|
B|---------------------------------|---------------------------------|
G|---------------------------------|---------------------------------|
D|-6-------------------------------|-9-------------------------------|
A|---------------------------------|---------------------------------|
E|---------------------------------|---------------------------------|

e|---------------------------------|---------------------------------|
B|---------------------------------|---------------------------------|
G|---------------------------------|---------------------------------|
D|-----------------0---4---2---0---|-----------------0---4---2---0---|
A|-------------2-------------------|-------------2-------------------|
E|-0---0---4-----------------------|-0---0---4-----------------------|





e|---------------------------------|---------------------------------|
B|---------------------------------|---------------------------------|
G|-9-------------------------------|-------------------------6---6---|
D|---------------------------------|---------------------------------|
A|---------------------------------|---------------------------------|
E|---------------------------------|---------------------------------|

e|---------------------------------|---------------------------------|
B|---------------------------------|---------------------------------|
G|---------------------------------|---------------------------------|
D|-----------------0---4---2---0---|-----------------0---4---2---0---|
A|-------------2-------------------|-------------2-------------------|
E|-0---0---4-----------------------|-0---0---4-----------------------|





  VERSE


   A                                 F#m
e|---------------------------------|---------------------------------|
B|---------------------------------|---------------------------------|
G|-4-----------------------6---6---|-4-----------6-----------4---6---|
D|-----7---------------------------|---------7-----------------------|
A|---------------------------------|---------------------------------|
E|---------------------------------|---------------------------------|




   A                                 F#m
e|---------------------------------|---------------------------------|
B|---------------------------------|---------------------------------|
G|-4-----------------------6---6---|-4-----------6-----------6---6---|
D|-----7---------------------------|---------7-----------------------|
A|---------------------------------|---------------------------------|
E|---------------------------------|---------------------------------|




   D                                                 E
e|---------------------------------|---------------------------------|
B|---------------------------------|-----7---7---7---7-------5-------|
G|-4-------------------------------|---------------------------------|
D|-----7---------------------------|---------------------------------|
A|---------------------------------|---------------------------------|
E|---------------------------------|---------------------------------|





e|---------------------------------|---------------------------------|
B|-3-----------5-------------------|---------------------------------|
G|---------4-----------------------|---------------------------------|
D|---------------------------------|---------------------------------|
A|---------------------------------|---------------------------------|
E|---------------------------------|---------------------------------|





e|---------------------------------|---------------------------------|
B|---------------------------------|---------------------------------|
G|-----------4---------------------|---------------------------------|
D|-----------------6---------------|---------------------------------|
A|---------------------------------|---------------------------------|
E|---------------------------------|---------------------------------|





e|---------------------------------|---------------------------------|
B|-----5---5---5---5-------3-------|---------------------------------|
G|---------------------------------|-4-------------------------------|
D|---------------------------------|---------6-----------------------|
A|---------------------------------|-------------7-------------------|
E|---------------------------------|---------------------------------|





e|---------------------------------|---------------------------------|
B|---------------------------------|---------------------------------|
G|---------------------------------|---------------------------------|
D|---------------------------------|-----6---7---6---7-------6-------|
A|---------------------------------|---------------------------------|
E|---------------------------------|---------------------------------|





e|---------------------------------|---------------------------------|
B|---------------------------------|-----5---5---5---5------3--------|
G|-------------4-------------------|---------------------------------|
D|-7---6---------------------------|---------------------------------|
A|---------------------------------|---------------------------------|
E|---------------------------------|---------------------------------|





e|---------------------------------|---------------------------------|
B|---------3---5-------------------|---------------------------------|
G|-4-------------------------------|-----7-------7---9---------------|
D|---------------------------------|---------9-----------------------|
A|---------------------------------|---------------------------------|
E|---------------------------------|---------------------------------|





e|-----------------|
B|-----------------|
G|-----------------|
D|-----------------|
A|-----------------|
E|-----------------|





  OUTRO



e|---------------------------------|-----------------|
B|---------------------------------|-----------------| Bass
G|---------------------------------|-----------------|
D|-----------------0---------------|-----------------|
A|-------------2-------------------|-----------------|
E|-0---0---4-----------------------|-----------------|





e|---------------------------------|-----------------|
B|---------------------------------|-----------------| Piano
G|---------------------------------|-----------------|
D|-----------------0---------------|-----------------|
A|-------------2-------------------|-----------------|
E|-0---0---4-----------------------|-----------------|

e|---------------------------------|-----------------|
B|---------------------------------|---------5---5---| Lead Guitar
G|---------------------------------|-----------------|
D|---------------------------------|-----------------|
A|---------------------------------|-----------------|
E|---------------------------------|-----------------|





e|---------------------------------|---------------------------------|
B|-5-------3---------------3---5---|---------------------------------|
G|-----------------4---------------|---------------------------------|
D|---------------------------------|---------------------------------|
A|---------------------------------|---------------------------------|
E|---------------------------------|---------------------------------|

e|---------------------------------|---------------------------------|
B|---------------------------------|---------------------------------|
G|---------------------------------|---------------------------------|
D|-----------------0---4---2---0---|-----------------0---4---2---0---|
A|-------------2-------------------|-------------2-------------------|
E|-0---0---4-----------------------|-0---0---4-----------------------|





e|---------------------------------|---------------------------------|
B|---------------------------------|-9---------------------------9---|
G|---------------------------------|-9---------------------------9---|
D|---------------------------------|---------------------------------|
A|---------------------------------|---------------------------------|
E|---------------------------------|---------------------------------|

e|---------------------------------|---------------------------------|
B|---------------------------------|---------------------------------|
G|---------------------------------|---------------------------------|
D|-----------------0---4---2---0---|-----------------0---4---2---0---|
A|-------------2-------------------|-------------2-------------------|
E|-0---0---4-----------------------|-0---0---4-----------------------|





e|---------------------------------|---------------------------------|
B|-9-------7-------5---------------|---------------------------------|
G|-9-------7-------4-------4-------|---------------------------------|
D|-------------------------6---6---|---------------------------------|
A|-----------------------------7---|---------------------------------|
E|---------------------------------|---------------------------------|

e|---------------------------------|---------------------------------|
B|---------------------------------|---------------------------------|
G|---------------------------------|---------------------------------|
D|-----------------0---4---2---0---|-----------------0---4---2---0---|
A|-------------2-------------------|-------------2-------------------|
E|-0---0---4-----------------------|-0---0---4-----------------------|





e|---------------------------------|---------------------------------|
B|---------------------------------|-9-----------------------\-------|
G|---------------------------------|-9-----------------------\-------|
D|---------------------------------|---------------------------------|
A|---------------------------------|---------------------------------|
E|---------------------------------|---------------------------------|

e|---------------------------------|---------------------------------|
B|---------------------------------|---------------------------------|
G|---------------------------------|---------------------------------|
D|-----------------0---4---2---0---|-----------------0---4---2---0---|
A|-------------2-------------------|-------------2-------------------|
E|-0---0---4-----------------------|-0---0---4-----------------------|





e|---------------------------------|---------------------------------|
B|-7-------------------------------|---------------------------------|
G|-7-----------------------6---6---|-4-------------------------------|
D|---------------------------------|-----7---------------------------|
A|---------------------------------|---------------------------------|
E|---------------------------------|---------------------------------|

e|---------------------------------|---------------------------------|
B|---------------------------------|---------------------------------|
G|---------------------------------|---------------------------------|
D|-----------------0---4---2---0---|---------------------------------|
A|-------------2-------------------|-0---0---------------------------|
E|-0---0---4-----------------------|---------------------------------|
comments
We did not receive enough feedback on this tab! Please rate:
print report bad tab
1 2 3 4 5
I want to post or [tab]
guest
You may want to rate the tab now too:
select rating
Please do not post tabs as comments. Select "correction" instead!