Oops, an error
Loading. Please wait.

Riders In The Sky Tab

4,427 views 36 this week
no commentswrite comment
1 2 3 4 5
excellent!
x 3
add to favorites launch autoscroll
font size
0
reset
Autoscroll
+/-
esc
set tempo
stop
Contributor
WARNING: You are trying to view
                                    content from Ultimate-Guitar.com
                                    in an unauthorized application,
                                    which is prohibited.

                                    Please use an official Ultimate
                                    Guitar Tabs application for iPhone,
                                    iPad or Android to access legitimate
                                    chords, guitar, bass, and drum tabs
                                    from Ultimate-Guitar.com database.

                                    Type "ultimate guitar tabs" in Apple
                                    App Store's or Android Market's
                                    search to find the application.
RIDERS IN THE SKY


The Ventures


VERSE



e|---------------------------------|---------------------------------|
B|---------------------------------|---------------------------------|
G|---------------------------------|---------------------------------|
D|---------------------------------|---------------------------------|
A|---------------------------------|-0-----0-0---2---3-----3-3---0---|
E|-----------------------------0---|---------------------------------|




e|---------------------------------|---------------------------------|
B|---------------------------------|---------------------------------|
G|---------------------------------|---------------------------------|
D|---------------------------------|---------------------------------|
A|---------------------------------|---------------------------------|
E|-3-----3-3---0---3---------------|-----------------------------0---|




e|---------------------------------|---------------------------------|
B|---------------------------------|---------------------------------|
G|---------------------------------|---------------------------------|
D|-----------------------------0---|-2-----2-2-------2---------------|
A|-0-----0-0---2---3-----3-3-------|-------------3-------------------|
E|---------------------------------|---------------------------------|




e|---------------------------------|---------------------------------|
B|---------------------------------|---------------------------------|
G|---------------------------------|-----2---2-----2-2---------------|
D|-----------------------------2---|-2-------------------2---2-----2-|
A|---------------------------------|---------------------------------|
E|---------------------------------|---------------------------------|




e|---------------------------------|---------------------------------|
B|---------------------------------|---------------------------------|
G|---------------------------------|---------------------------------|
D|-2---2---0-----------------------|---------------------------------|
A|-------------3---0---------------|-----------------3-----3-3-------|
E|-----------------------------0---|-1-----1-1---1-------------------|




e|---------------------------------|---------------------------------|
B|---------------------------------|---------------------------------|
G|---------------------------------|---------------------------------|
D|---------------------------------|---------------------------------|
A|----------------------------/3---|-----0---0-------0---------------|
E|---------------------------------|-------------3-------------------|




e|---------------------------------|---------------------------------|
B|---------------------------------|---------------------------------|
G|---------------------------------|---------------------------------|
D|---------------------2-2-----2-2-|-----2-2-----2-2-----2-2-----2-2-|
A|-----------------0-------3-------|-0-------3-------0-------3-------|
E|---------------------------------|---------------------------------|




                     VERSE

e|-----------------|---------------------------------|
B|-----------------|---------------------------------|
G|-----------------|---------------------------------|
D|-----2-2---------|---------------------------------|
A|-0-------3-------|-0-----0-0---2---3-----3-3---0---|
E|-------------0---|---------------------------------|




e|---------------------------------|---------------------------------|
B|---------------------------------|---------------------------------|
G|---------------------------------|---------------------------------|
D|---------------------------------|---------------------------------|
A|---------------------------------|---------------------------------|
E|-3-----3-3---0---3---------------|-----------------------------0---|




e|---------------------------------|---------------------------------|
B|---------------------------------|---------------------------------|
G|---------------------------------|---------------------------------|
D|-----------------------------0---|-2-----2-2-------2---------------|
A|-0-----0-0---2---3-----3-3-------|-------------3-------------------|
E|---------------------------------|---------------------------------|




e|---------------------------------|---------------------------------|
B|---------------------------------|---------------------------------|
G|---------------------------------|-----2---2-----2-2---------------|
D|-----------------------------2---|-2-------------------2---2-----2-|
A|---------------------------------|---------------------------------|
E|---------------------------------|---------------------------------|




e|---------------------------------|---------------------------------|
B|---------------------------------|---------------------------------|
G|---------------------------------|---------------------------------|
D|-2---2---0-----------------------|---------------------------------|
A|-------------3---0---------------|-----------------3-----3-3-------|
E|-----------------------------0---|-1-----1-1---1-------------------|




e|---------------------------------|---------------------------------|
B|---------------------------------|---------------------------------|
G|---------------------------------|---------------------------------|
D|---------------------------------|---------------------------------|
A|----------------------------/3---|-----0---0-------0---------------|
E|---------------------------------|-------------3-------------------|




e|---------------------------------|
B|---------------------------------|
G|---------------------------------|
D|---------------------------------|
A|---------------------------------|
E|---------------------------------|




BRIDGE



e|---0----0----0----3--------------|---------------------------------|
B|--1----1----1----5---------------|---------------------------------|
G|-2----2----2----5----------------|---------------------------------|
D|---------------------------------|---------------------------------|
A|---------------------------------|---------------------------------|
E|---------------------------------|---------------------------------|




e|---5----5----5----5-------0------|---------------------------------|
B|--5----5----5----5-------1-------|---------------------------------|
G|-5----5----5----5-------2--------|---------------------------------|
D|---------------------------------|---------------------------------|
A|---------------------------------|---------------------------------|
E|---------------------------------|-------------------------0-------|




e|---------------------------------|---------------------------------|
B|---------------------------------|---------------------------------|
G|---------------------------------|---------------------------------|
D|---------------------------------|---------------------------------|
A|---------------------------------|-3-----------------------3-------|
E|-1---------------1---------------|---------------------------------|




e|---------------------------------|---------------------------------|
B|---------------------------------|---------------------------------|
G|---------------------------------|---------------------------------|
D|---------------------------------|---------------------------------|
A|-0-------------------------------|---------------------------------|
E|---------------------------------|-----------------------------0---|




VERSE



e|---------------------------------|---------------------------------|
B|---------------------------------|---------------------------------|
G|---------------------------------|---------------------------------|
D|---------------------------------|---------------------------------|
A|-0-----0-0---2---3-----3-3---0---|---------------------------------|
E|---------------------------------|-3-----3-3---0---3---------------|




e|---------------------------------|---------------------------------|
B|---------------------------------|---------------------------------|
G|---------------------------------|---------------------------------|
D|---------------------------------|-----------------------------0---|
A|---------------------------------|-0-----0-0---2---3-----3-3-------|
E|-----------------------------0---|---------------------------------|




e|---------------------------------|---------------------------------|
B|---------------------------------|---------------------------------|
G|---------------------------------|---------------------------------|
D|-2-----2-2-------2---------------|-----------------------------2---|
A|-------------3-------------------|---------------------------------|
E|---------------------------------|---------------------------------|




e|---------------------------------|---------------------------------|
B|---------------------------------|---------------------------------|
G|-----2---2-----2-2---------------|---------------------------------|
D|-2-------------------2---2-----2-|-2---2---0-----------------------|
A|---------------------------------|-------------3---0---------------|
E|---------------------------------|-----------------------------0---|




e|---------------------------------|---------------------------------|
B|---------------------------------|---------------------------------|
G|---------------------------------|---------------------------------|
D|---------------------------------|---------------------------------|
A|-----------------3-----3-3-------|----------------------------/3---|
E|-1-----1-1---1-------------------|---------------------------------|




                                     INTERLUDE

e|---------------------------------|---------------------------------|
B|---------------------------------|---------------------------------|
G|---------------------------------|---------------------------------|
D|---------------------------------|-----2-2-----2-2-----2-2-----2-2-|
A|-----0---0-------0---------------|-0-------3-------0-------3-------|
E|-------------3-------------------|---------------------------------|




e|---------------------------------|---------------------------------|
B|---------------------------------|---------------------------------|
G|---------------------------------|---------------------------------|
D|-----3-3-----3-3-----3-3-----3-3-|-----4-4-----4-4-----4-4-----4-4-|
A|-1-------4-------1-------1-------|-2-------5-------2-------5-------|
E|---------------------------------|---------------------------------|




e|---------------------------------|
B|---------------------------------|
G|---------------------------------|
D|-----5-5-----5-5-----5-5---------|
A|-3-------6-------3--------6------|
E|-----------------------------3---|




VERSE



e|---------------------------------|---------------------------------|
B|---------------------------------|---------------------------------|
G|---------------------------------|---------------------------------|
D|-------------0---1-----1-1-------|---------------------------------|
A|-3-----3-3-------------------3---|-1-----1-1-------1---------------|
E|---------------------------------|-------------3-------------------|




e|---------------------------------|---------------------------------|
B|---------------------------------|---------------------------------|
G|---------------------------------|---------------------------------|
D|---------------------------------|-------------0---1-----1-1---3---|
A|---------------------------------|-3-----3-3-----------------------|
E|-----------------------------3---|---------------------------------|




e|---------------------------------|---------------------------------|
B|---------------------------------|---------------------------------|
G|-0-----0-0-------0---------------|---------------------------------|
D|-------------1-------------------|-----------------------------5---|
A|---------------------------------|---------------------------------|
E|---------------------------------|---------------------------------|




e|---------------------------------|---------------------------------|
B|---------------------------------|---------------------------------|
G|-----5---5-----5-5---------------|---------------------------------|
D|-5-------------------5---5-----5-|-5---5---3-----------------------|
A|---------------------------------|-------------6---3---------------|
E|---------------------------------|-----------------------------3---|




e|---------------------------------|---------------------------------|
B|---------------------------------|---------------------------------|
G|---------------------------------|---------------------------------|
D|---------------------------------|---------------------------------|
A|-----------------6-----6-6-------|----------------------------/6---|
E|-4-----4-4---4-------------------|---------------------------------|




e|---------------------------------|-----------------|
B|---------------------------------|-----------------|
G|---------------------------------|-----------------|
D|---------------------------------|-----------------|
A|-----3---3---1---3---------------|-----------------|
E|---------------------------------|-----------------|




INTERLUDE



e|---------------------------------|---------------------------------|
B|---------------------------------|---------------------------------|
G|---------------------------------|---------------------------------|
D|-----4-4-----4-4-----4-4----4-4--|-----3-3-----3-3-----3-3-----3-3-|
A|-2-------5-------2-------5-------|-1-------4-------1-------4-------|
E|---------------------------------|---------------------------------|




e|---------------------------------|
B|---------------------------------|
G|---------------------------------|
D|-----2-2-----2-2-----2-2-----2-2-|
A|-0-------3-------0-------3-------|
E|---------------------------------|




BRIDGE



e|---0----0----0----3--------------|---------------------------------|
B|--1----1----1----5---------------|---------------------------------|
G|-2----2----2----5----------------|---------------------------------|
D|---------------------------------|---------------------------------|
A|---------------------------------|---------------------------------|
E|---------------------------------|---------------------------------|




e|---5----5----5----5-------0------|---------------------------------|
B|--5----5----5----5-------1-------|---------------------------------|
G|-5----5----5----5-------2--------|---------------------------------|
D|---------------------------------|---------------------------------|
A|---------------------------------|---------------------------------|
E|---------------------------------|-------------------------0-------|




e|---------------------------------|---------------------------------|
B|---------------------------------|---------------------------------|
G|---------------------------------|---------------------------------|
D|---------------------------------|---------------------------------|
A|---------------------------------|-3-----------------------3-------|
E|-1---------------1---------------|---------------------------------|




e|---------------------------------|
B|---------------------------------|
G|---------------------------------|
D|---------------------------------|
A|-0-------------------------------|
E|---------------------------------|




OUTRO



e|---------------------------------|---------------------------------|
B|---------------------------------|---------------------------------|
G|---------------------------------|---------------------------------|
D|-----2-2-----2-2-----2-2-----2-2-|-----2-2-----2-2-----2-2-----2-2-|
A|-0-------3-------0-------3-------|-0-------3-------0-------3-------|
E|---------------------------------|---------------------------------|




e|---------------------------------|---------------------------------|
B|---------------------------------|---------------------------------|
G|---------------------------------|---------------------------------|
D|-----2-2-----2-2-----2-2-----2-2-|-----2-2-----2-2-----2-2-----2-2-|
A|-0-------3-------0-------3-------|-0-------3-------0-------3-------|
E|---------------------------------|---------------------------------| .....
comments
We did not receive enough feedback on this tab! Please rate:
print report bad tab
1 2 3 4 5
I want to post or [tab]
guest
You may want to rate the tab now too:
select rating
Please do not post tabs as comments. Select "correction" instead!