Oops, an error
Loading. Please wait.

Runaway Tab

ver1
ver1

Whole song

Interactive

More versions @911Tabs.com
8,596 views 15 this week
no commentswrite comment
1 2 3 4 5
excellent!
x 2
Autoscroll
+/-
esc
set tempo
stop
Contributor
Hey! There's an official Ultimate Guitar app which is ideal
for learning songs when you're away from computer. Get the app
WARNING: You are trying to view
                                    content from Ultimate-Guitar.com
                                    in an unauthorized application,
                                    which is prohibited.

                                    Please use an official Ultimate
                                    Guitar Tabs application for iPhone,
                                    iPad or Android to access legitimate
                                    chords, guitar, bass, and drum tabs
                                    from Ultimate-Guitar.com database.

                                    Type "ultimate guitar tabs" in Apple
                                    App Store's or Android Market's
                                    search to find the application.
RUNAWAY

The Ventures


INTRO


e|---------------------------------|---------------------------------|
B|---------------------------------|---------------------------------|
G|---------------------------------|---------------------------------|
D|---------------------------------|---------------------------------|
A|---------------------------------|---------------------------------|
E|---------------------------------|-------------0-----------3-------|


   Am
e|---------------------------------|---------------------------------|
B|---------------------------------|---------------------------------|
G|---------------------------------|---------------------------------|
D|---------------------------------|---------------------------------|
A|-0-------------------------------|-0-------------------------------|
E|-------------0-----------3-------|-------------0-----------3-------|

e|---------------------------------|---------------------------------|
B|---------------------------------|---------------------------------|
G|---------------------------------|---------------------------------|
D|---------------------------------|---------------------------------|
A|-0-------------------------------|-0-------------------------------|
E|-------------0-----------3-------|---------------------------------|


VERSE

   Am
e|---------------------------------|---------------------------------|
B|---------------------------------|-------------------------5-------|
G|-2-----------------------4-------|-2-------4---5-------------------|
D|---------------------------------|---------------------------------|
A|---------------------------------|---------------------------------|
E|---------------------------------|---------------------------------|


   G
e|---------------------------------|---------------------------------|
B|-3-------------------------------|-------------------------3-------|
G|---------4-------------------2---|-0-------2---4-------------------|
D|---------------------------------|---------------------------------|
A|---------------------------------|---------------------------------|
E|---------------------------------|---------------------------------|


   F
e|---------------------------------|---------------------------------|
B|---------------------------------|---------------------------------|
G|-5---------5p4---2---------------|---------0---2-------5-------4---|
D|-----------------------------5---|-3-------------------------------|
A|---------------------------------|---------------------------------|
E|---------------------------------|---------------------------------|


   E
e|---------------------------------|---------------------------------|
B|---------------------------------|---------------------------------|
G|---------------------------------|---------------------------------|
D|---------------------------------|---------------------------------|
A|---------------------------------|---------------------------------|
E|---------------------------------|---------------------------------|


VERSE

   Am
e|-5-----------------------7-------|-5-------7---8-----------12------|
B|---------------------------------|---------------------------------|
G|---------------------------------|---------------------------------|
D|---------------------------------|---------------------------------|
A|---------------------------------|---------------------------------|
E|---------------------------------|---------------------------------|


   G
e|-10------------------------------|-------------------------10------|
B|---------12------------------10--|---------10--12------------------|
G|---------------------------------|-12------------------------------|
D|---------------------------------|---------------------------------|
A|---------------------------------|---------------------------------|
E|---------------------------------|---------------------------------|


   F
e|-8---------8p7---5---------------|-------------5-------8-------7---|
B|-----------------------------8---|-6-------8-----------------------|
G|---------------------------------|---------------------------------|
D|---------------------------------|---------------------------------|
A|---------------------------------|---------------------------------|
E|---------------------------------|---------------------------------|


   E
e|---------------------------------|---------------------------------|
B|---------------------------------|---------------------------------|
G|---------------------------------|---------------------------------|
D|---------------------------------|---------------------------------|
A|---------------------------5/7---|-----7---5---5---3---3---2---2---|
E|---------------------------------|---------------------------------|


BRIDGE

   A
e|---------------------------------|---------------------------------|
B|---------------------------------|---------------------------------|
G|---------------------------------|---------------------------------|
D|---------------------------------|---------------------------------|
A|---------7---7---4---------------|-------------4-------------------|
E|-5-----------------------7-------|-5---7---------------5---5---4---|


   F#m
e|---------------------------------|---------------------------------|
B|---------------------------------|---------------------------------|
G|---------------------------------|---------------------------------|
D|---------4---2---4---2-------2---|-4-------2-----------------------|
A|-------------------------4-------|-------------4-------------------|
E|-2-------------------------------|---------------------0---0---2---|


   A
e|---------------------------------|---------------------------------|
B|---------------------------------|---------------------------------|
G|---------------------------------|---------------------------------|
D|---------------------------------|---------------------------------|
A|---------7---7---4---------------|-------------4-------------------|
E|-5-----------------------7-------|-5---7---------------5---5---4---|


   F#m
e|---------------------------------|---------------------------------|
B|---------------------------------|---------------------------------|
G|---------------------------------|---------------------------------|
D|---------4-------2---------------|-4---2---------------------------|
A|-------------------------4-------|-------------4-------4-------4---|
E|-2-------------------------------|---------------------------------|


   A
e|---------------------------------|-9-------7-------9-------9-------|
B|---------------------------------|-10--------------10------9-------|
G|---------------------------------|---------------------------------|
D|---------------------------------|---------------------------------|
A|---------------------------------|---------------------------------|
E|-7-------5-----------------------|---------------------------------|


   F#m
e|---------------------------------|---------------------------------|
B|-7---------------6---------------|---------------------------------|
G|---------------------------------|---------------------------------|
D|---------------------------------|---------------------------------|
A|---------------------------------|---------------------------------|
E|---------------------------------|---------------------------------|


   A
e|---------------------------------|-9-------7-------9-------9-------|
B|---------------------------------|-10--------------10------9-------|
G|---------------------------------|---------------------------------|
D|---------------------------------|---------------------------------|
A|---------------------------------|---------------------------------|
E|-7-------5-----------------------|---------------------------------|


   F#m
e|---------------------------------|---------------------------------|
B|-7---------------5---7---5-------|-----------------7---5-----------|
G|-----------------------------6---|-------------------------6-------|
D|---------------------------------|---------------------------------|
A|---------------------------------|---------------------------------|
E|---------------------------------|---------------------------------|


   D
e|---------------------------------|---------------------------------|
B|---------------------------------|---------------------------------|
G|---------------------------------|-------------------------6-------|
D|-5-------7-----------------------|---------4----4--7---------------|
A|---------------------------------|---------------------------------|
E|---------------------------------|---------------------------------|


   E
e|---------------------------------|---------------------------------|
B|-5-------------------------------|---------------------------------|
G|-----6-------6-------------------|-------------------------2-------|
D|---------------------------------|---------2-------4---------------|
A|---------------------------------|---------------------------------|
E|---------------------------------|---------------------------------|


   A                                 D
e|---------------------------------|---------------------------------|
B|---------------------------------|-3---3-------3-------3-----------|
G|-4---2---2-----------------------|-2---2-------2-------2-----------|
D|---------------------------------|---------------------------------|
A|---------------------------------|---------------------------------|
E|---------------------------------|---------------------------------|


   A                                 E
e|---------------------------------|---------------------------------|
B|---------------------------------|---------------------------------|
G|-4---2---2-----------------------|---------------------------------|
D|---------------------------------|---------------------------------|
A|---------------------------------|---------------------------------|
E|---------------------------------|---------------------------------|


GUITAR SOLO

   Am
e|-----5-------4---5-----------5---|-----4---5---------------5-------|
B|-----5---------------5-------5---|-------------5-------5-----------|
G|-----5-------------------5---5---|-----------------5---------------|
D|---------------------------------|---------------------------------|
A|---------------------------------|---------------------------------|
E|---------------------------------|---------------------------------|


   G
e|---------------------------------|---------------------------------|
B|-8-------7-h-8-------------------|-------------------------7-h-8---|
G|-----------------6-h-7-----------|-----------------6-h-7-----------|
D|-------------------------8-h-9---|---------8-h-9-------------------|
A|---------------------------------|-9-h-10--------------------------|
E|---------------------------------|---------------------------------|


   F
e|---------------------------------|---------------------------------|
B|-----6-------5---6-----------6---|-----5---6---------------6-------|
G|-----5---------------5-------5---|-------------5-------5-----------|
D|-------------------------7-------|-----------------7---------------|
A|---------------------------------|---------------------------------|
E|---------------------------------|---------------------------------|


   E
e|---------------------------------|---------------------------------|
B|-5~--------------5~--------------|-5~------3~----------------------|
G|---------------------------------|-----------------5~------4~------|
D|---------------------------------|---------------------------------|
A|---------------------------------|---------------------------------|
E|---------------------------------|---------------------------------|


   Am
e|-----5-------4---5-----------5---|-----4---5---------------5-------|
B|-----5---------------5-------5---|-------------5-------5-----------|
G|-----5-------------------5---5---|-----------------5---------------|
D|---------------------------------|---------------------------------|
A|---------------------------------|---------------------------------|
E|---------------------------------|---------------------------------|


   G
e|---------------------------------|---------------------------------|
B|-8-------7-h-8-------------------|-------------------------7-h-8---|
G|-----------------6-h-7-----------|-----------------6-h-7-----------|
D|-------------------------8-h-9---|---------8-h-9-------------------|
A|---------------------------------|-9-h-10--------------------------|
E|---------------------------------|---------------------------------|


   F
e|---------------------------------|---------------------------------|
B|-----6-------5---6-----------6---|-----5---6---------------6-------|
G|-----5---------------5-------5---|-------------5-------5-----------|
D|-------------------------7-------|-----------------7---------------|
A|---------------------------------|---------------------------------|
E|---------------------------------|---------------------------------|


   E
e|---------------------------------|---------------------------------|
B|-5~--------------5~--------------|-5~------3~----------------------|
G|---------------------------------|-----------------5~------4~------|
D|---------------------------------|---------------------------------|
A|---------------------------------|---------------------------------|
E|---------------------------------|---------------------------------|


BRIDGE

   A
e|---------------------------------|---------------------------------|
B|---------------------------------|---------------------------------|
G|---------------------------------|---------------------------------|
D|---------------------------------|---------------------------------|
A|---------7---7---4---------------|-------------4-------------------|
E|-5-----------------------7-------|-5---7---------------5---5---4---|


   F#m
e|---------------------------------|---------------------------------|
B|---------------------------------|---------------------------------|
G|---------------------------------|---------------------------------|
D|---------4---2---4---2-------2---|-4-------2-----------------------|
A|-------------------------4-------|-------------4-------------------|
E|-2-------------------------------|---------------------0---0---2---|


   A
e|---------------------------------|---------------------------------|
B|---------------------------------|---------------------------------|
G|---------------------------------|---------------------------------|
D|---------------------------------|---------------------------------|
A|---------7---7---4---------------|-------------4-------------------|
E|-5-----------------------7-------|-5---7---------------5---5---4---|


   F#m
e|---------------------------------|---------------------------------|
B|---------------------------------|---------------------------------|
G|---------------------------------|---------------------------------|
D|---------4-------2---------------|-4---2---------------------------|
A|-------------------------4-------|-------------4-------4-------4---|
E|-2-------------------------------|---------------------------------|


   A
e|---------------------------------|-9-------7-------9-------9-------|
B|---------------------------------|-10--------------10------9-------|
G|---------------------------------|---------------------------------|
D|---------------------------------|---------------------------------|
A|---------------------------------|---------------------------------|
E|-7-------5-----------------------|---------------------------------|


   F#m
e|---------------------------------|---------------------------------|
B|-7---------------6---------------|---------------------------------|
G|---------------------------------|---------------------------------|
D|---------------------------------|---------------------------------|
A|---------------------------------|---------------------------------|
E|---------------------------------|---------------------------------|


   A
e|---------------------------------|-9-------7-------9-------9-------|
B|---------------------------------|-10--------------10------9-------|
G|---------------------------------|---------------------------------|
D|---------------------------------|---------------------------------|
A|---------------------------------|---------------------------------|
E|-7-------5-----------------------|---------------------------------|


   F#m
e|---------------------------------|---------------------------------|
B|-7---------------5---7---5-------|-----------------7---5-----------|
G|-----------------------------6---|-------------------------6-------|
D|---------------------------------|---------------------------------|
A|---------------------------------|---------------------------------|
E|---------------------------------|---------------------------------|


   D
e|---------------------------------|---------------------------------|
B|---------------------------------|---------------------------------|
G|---------------------------------|-------------------------6-------|
D|-5-------7-----------------------|---------4----4--7---------------|
A|---------------------------------|---------------------------------|
E|---------------------------------|---------------------------------|


   E
e|---------------------------------|---------------------------------|
B|-5-------------------------------|---------------------------------|
G|-----6-------6-------------------|-------------------------2-------|
D|---------------------------------|---------2-------4---------------|
A|---------------------------------|---------------------------------|
E|---------------------------------|---------------------------------|


   A                                 D
e|---------------------------------|---------------------------------|
B|---------------------------------|-3---3-------3-------3-----------|
G|-4---2---2-----------------------|-2---2-------2-------2-----------|
D|---------------------------------|---------------------------------|
A|---------------------------------|---------------------------------|
E|---------------------------------|---------------------------------|


OUTRO

   A                                 D
e|---------------------------------|---------------------------------|
B|---------------------------------|-3---3-------3-------3-----------|
G|-4---2---2-----------------------|-2---2-------2-------2-----------|
D|---------------------------------|---------------------------------|
A|---------------------------------|---------------------------------|
E|---------------------------------|---------------------------------|


   A                                 D
e|---------------------------------|---------------------------------|
B|---------------------------------|-3---3-------3-------3-----------|
G|-4---2---2-----------------------|-2---2-------2-------2-----------|
D|---------------------------------|---------------------------------|
A|---------------------------------|---------------------------------|
E|---------------------------------|---------------------------------|


   A
e|---------------------------------|-----------------9---------------|
B|---------------------------------|-2---------------10--------------|
G|-4---2---2-----------------------|-2---------------9---------------|
D|---------------------------------|-----------------11--------------|
A|---------------------------------|---------------------------------|
E|---------------------------------|---------------------------------|
comments
We did not receive enough feedback on this tab! Please rate:
print report bad tab
1 2 3 4 5
I want to post or [tab]
guest
You may want to rate the tab now too:
select rating
Please do not post tabs as comments. Select "correction" instead!