Oops, an error
Loading. Please wait.

Secret Agent Man Tab

ver2
ver2

Intro

Whole song

Interactive

More versions @911Tabs.com
7,243 views 6 this week
no commentswrite comment
1 2 3 4 5
excellent!
x 2
Autoscroll
+/-
esc
set tempo
stop
Contributor
Hey! There's an official Ultimate Guitar app which is ideal
for learning songs when you're away from computer. Get the app
WARNING: You are trying to view
                                    content from Ultimate-Guitar.com
                                    in an unauthorized application,
                                    which is prohibited.

                                    Please use an official Ultimate
                                    Guitar Tabs application for iPhone,
                                    iPad or Android to access legitimate
                                    chords, guitar, bass, and drum tabs
                                    from Ultimate-Guitar.com database.

                                    Type "ultimate guitar tabs" in Apple
                                    App Store's or Android Market's
                                    search to find the application.
SECRET AGENT MAN


The Ventures


INTRO

   N.C.
e|---------------------------------|---------------------------------|
B|---------------------------------|---------------------------------|
G|-4-----------5-----------5-------|-6-----------5-----------5-------|
D|---------------------------------|---------------------------------|
A|---------------------------------|---------------------------------|
E|---------------------------------|---------------------------------|




e|---------------------------------|---------------------------------|
B|---------------------------------|---------------------------------|
G|-4-----------5-----------5-------|-6-----------5-----------5-------|
D|---------------------------------|---------------------------------|
A|---------------------------------|---------------------------------|
E|---------------------------------|---------------------------------|



   Em
e|---------------------------------|---------------------------------|
B|---------------------------------|---------------------------------|
G|-4-----------5-----------5-------|-6-----------5-----------5-------|
D|---------------------------------|---------------------------------|
A|---------------------------------|---------------------------------|
E|---------------------------------|---------------------------------|




e|---------------------------------|---------------------------------|
B|---------------------------------|---------------------------------|
G|-4-----------5-----------5-------|-6-----------5-------------------|
D|---------------------------------|---------------------------------|
A|---------------------------------|-----------------------------5--/|
E|---------------------------------|---------------------------------|




VERSE


   Em                                Am
e|---------------------------------|---------------------------------|
B|---------------------------------|---------------------------------|
G|-------------------------4-------|---------------------------------|
D|-----------------5---------------|-7-------7---5---7---7-5---------|
A|-7-------7---7-------------------|-------------------------7---5---|
E|---------------------------------|---------------------------------|



   Em
e|---------------------5b6r5-------|---------------------------------|
B|-----------------------------8---|---------------------------------|
G|---------------------------------|-9-------------------------------|
D|-5-------------------------------|---------------------------------|
A|---------7-----------------------|-----------------------------5--/|
E|---------------------------------|---------------------------------|




e|---------------------------------|---------------------------------|
B|---------------------------------|---------------------------------|
G|---------------------------------|-----------------7-------7-------|
D|-----------------5-------5---7--/|-9-------9---9-------9-------9---|
A|-7-------7---7-------7-----------|---------------------------------|
E|---------------------------------|---------------------------------|



   B7
e|---------------------------------|---------------------------------|
B|---------------------------------|---------------------------------|
G|/8------------------9b10r9---7---|-------------------------7-------|
D|---------9-----------------------|-9-------------------9-------9---|
A|---------------------------------|---------------------------------|
E|---------------------------------|---------------------------------|



   Em
e|---------------------------------|---------------------------------|
B|---------------------------------|---------------------------------|
G|/9-------9-------9---7-----------|---------------------------------|
D|-------------------------9p7-----|-9-----------------------7p5-----|
A|---------------------------------|---------------------------------|
E|---------------------------------|---------------------------------|



   Am
e|---------------------------------|---------------------------------|
B|---------------------------------|---------------------------------|
G|---------------------------------|---------7-----------------------|
D|---------7---5---7---7-5-----5---|-7-b-9------9r7------7---5-------|
A|-------------------------7-------|-----------------------------5---|
E|---------------------------------|---------------------------------|



   Em                                Am
e|---------------------------------|---------------------------------|
B|---------------------------------|---------------------------------|
G|-------------------------4-------|---------------------------------|
D|-----------------5---------------|(7)------7---5---7---7-5---------|
A|-7-------7---5-------------------|-------------------------7---5---|
E|---------------------------------|---------------------------------|



   Em
e|---------------------------------|---------------------------------|
B|---------------------------------|---------------------------------|
G|---------------------------------|-------------------------7-------|
D|-5-------------------------------|----------------/9---------------|
A|---------7-----------------------|---------------------------------|
E|---------------------------------|---------------------------------|




CHORUS


   Bm                                Em
e|---------------------------------|---------------------------------|
B|---------7-----------------------|---------------------------------|
G|-------------------------7-------|-9-----------------------7-------|
D|---------------------------------|----------------/9---------------|
A|---------------------------------|---------------------------------|
E|---------------------------------|---------------------------------|



   Bm                                Em
e|---------------------------------|---------------------------------|
B|---------7-----------------------|---------------------------------|
G|-------------------------7-------|-9-------------------------------|
D|---------------------------------|---------------------9---7---5---|
A|---------------------------------|---------------------------------|
E|---------------------------------|---------------------------------|



   C                                 B7
e|---------------------------------|---------------------------------|
B|---------------------------------|---------------------------------|
G|---------------------------------|---------------------------------|
D|-7-------7---5---7-------7---5---|-7-------7---5---7---7-5---------|
A|---------------------------------|-------------------------7---5---|
E|---------------------------------|---------------------------------|



   Em
e|---------------------------------|---------------------------------|
B|---------------------------------|---------------------------------|
G|---------------------------------|-------------------------7-------|
D|-----------------5-------7---5---|-9-------9---7---9---------------|
A|-7-------5---7-------------------|---------------------------------|
E|---------------------------------|---------------------------------|



   Bm                                Em
e|---------------------------------|---------------------------------|
B|---------7-----------------------|---------------------------------|
G|-------------------------7-------|-9-----------------------7-------|
D|---------------------------------|----------------/9---------------|
A|---------------------------------|---------------------------------|
E|---------------------------------|---------------------------------|



   Bm                                Em
e|---------------------------------|---------------------------------|
B|---------7-----------------------|---------------------------------|
G|---------------------9---7-------|-9-------------------------------|
D|---------------------------------|---------------------9---7---5---|
A|---------------------------------|---------------------------------|
E|---------------------------------|---------------------------------|



   C                                 B7
e|---------------------------------|---------------------------------|
B|---------------------------------|---------------------------------|
G|---------------------------------|---------7-----------------------|
D|-7-------7---5---7---7-5---------|-7-/-9-----------9-\-7---5-------|
A|-------------------------7---5---|-----------------------------5---|
E|---------------------------------|---------------------------------|



   Em
e|---------------------------------|---------------------------------|
B|---------------------------------|---------------------------------|
G|---------------------------------|-------------------------7-------|
D|-----------------5-------7---5---|-9-------9---7---9---------------|
A|-7-------5---7-------------------|---------------------------------|
E|---------------------------------|---------------------------------|



   Bm                                Em
e|---------------------------------|---------------------------------|
B|---------7-----------------------|---------------------------------|
G|------------------------(7)------|-9-------------------------------|
D|---------------------------------|---------------------------------|
A|---------------------------------|---------------------------------|
E|---------------------------------|---------------------------------|




INTERLUDE



e|---------------------------------|---------------------------------|
B|---------------------------------|---------------------------------|
G|-4-----------5-----------5-------|-6-----------5-----------5-------|
D|---------------------------------|---------------------------------|
A|---------------------------------|---------------------------------|
E|---------------------------------|---------------------------------|




e|---------------------------------|---------------------------------|
B|---------------------------------|---------------------------------|
G|-4-----------5-----------5-------|-6-----------5-------------------|
D|---------------------------------|---------------------------------|
A|---------------------------------|---------------------------------|
E|---------------------------------|-------------------------7-\-----|




VERSE


   Em                                Am
e|---------------------------------|---------------------------------|
B|---------------------------------|---------------------------------|
G|---------------------------------|---------------------------------|
D|---------------------------------|---------------------------------|
A|-------------------------2-------|---------------------------------|
E|-0-------0---0---3---------------|-5-------5---3---5---3---0---0---|



   Em
e|---------------------------------|---------------------------------|
B|---------------------------------|---------------------------------|
G|---------------------------------|---------------------------------|
D|---------------------------------|---------------------------------|
A|---------------------------------|-----------------------------0---|
E|-3-------0-----------------------|---------------------------------|




e|---------------------------------|---------------------------------|
B|---------------------------------|---------------------------------|
G|---------------------------------|---------------------------------|
D|---------------------------------|---------------------------------|
A|---------------------------------|-2-------2---2---5-------5-------|
E|---------0---0---3-------5---3---|---------------------7-------7---|



   B7
e|---------------------------------|---------------------------------|
B|---------------------------------|---------------------------------|
G|---------------------------------|---------------------------------|
D|---------------------------------|---------------------------------|
A|-6-------------------------------|-------------------------5-------|
E|---------7-----------------------|---------------------7-------7---|



   Em
e|---------------------------------|---------------------------------|
B|---------------------------------|---------------------------------|
G|---------------------------------|---------------------------------|
D|---------------------------------|---------------------------------|
A|-7-------7-------7---5-----------|-2-------------------------------|
E|-------------------------7-5-3---|-------------------------5p3-----|



   Am
e|---------------------------------|---------------------------------|
B|---------------------------------|---------------------------------|
G|---------------------------------|---------------------------------|
D|---------------------------------|---------------------------------|
A|---------------------------------|-2-------5-----------------------|
E|-5-------5---3---5---3---0---3---|-----------------7\5-3---5---3---|



   Em                                Am
e|---------------------------------|---------------------------------|
B|---------------------------------|---------------------------------|
G|---------------------------------|---------------------------------|
D|---------------------------------|---------------------------------|
A|-------------------------2-------|---------------------------------|
E|-0-------0---0---3---------------|-5-------5---3---5---3---0---0---|



   Em
e|---------------------------------|---------------------------------|
B|---------------------------------|---------------------------------|
G|---------------------------------|-------------------------7-------|
D|---------------------------------|----------------/9---------------|
A|---------------------------------|---------------------------------|
E|-3-------0-----------------------|---------------------------------|




CHORUS


   Bm                                Em
e|---------------------------------|---------------------------------|
B|---------7-----------------------|---------------------------------|
G|-------------------------7-------|-9-----------------------7-------|
D|---------------------------------|----------------/9---------------|
A|---------------------------------|---------------------------------|
E|---------------------------------|---------------------------------|



   Bm                                Em
e|---------------------------------|---------------------------------|
B|---------7-----------------------|---------------------------------|
G|-------------------------7-------|-9-------------------------------|
D|---------------------------------|---------------------9---7---5---|
A|---------------------------------|---------------------------------|
E|---------------------------------|---------------------------------|



   C                                 B7
e|---------------------------------|---------------------------------|
B|---------------------------------|---------------------------------|
G|---------------------------------|---------------------------------|
D|-7-------7---5---7-------7---5---|-7-------7---5---7---7-5---------|
A|---------------------------------|-------------------------7---5---|
E|---------------------------------|---------------------------------|



   Em
e|---------------------------------|---------------------------------|
B|---------------------------------|---------------------------------|
G|---------------------------------|-------------------------7-------|
D|-----------------5-------7---5---|-9-------9---7---9---------------|
A|-7-------5---7-------------------|---------------------------------|
E|---------------------------------|---------------------------------|



   Bm                                Em
e|---------------------------------|---------------------------------|
B|---------7-----------------------|---------------------------------|
G|-------------------------7-------|-9-----------------------7-------|
D|---------------------------------|----------------/9---------------|
A|---------------------------------|---------------------------------|
E|---------------------------------|---------------------------------|



   Bm                                Em
e|---------------------------------|---------------------------------|
B|---------7-----------------------|---------------------------------|
G|-------------------------7-------|-9-------------------------------|
D|---------------------------------|---------------------9---7---5---|
A|---------------------------------|---------------------------------|
E|---------------------------------|---------------------------------|



   C                                 B7
e|---------------------------------|---------------------------------|
B|---------------------------------|---------------------------------|
G|---------------------------------|---------7-----------------------|
D|-7-------7---5---7---7-5---------|-7-/-9-----------9-\-7---5-------|
A|-------------------------7---5---|-----------------------------5---|
E|---------------------------------|---------------------------------|



   Em
e|---------------------------------|---------------------------------|
B|---------------------------------|---------------------------------|
G|---------------------------------|-------------------------7-------|
D|-----------------5-------7---5---|-9-------9---7---9---------------|
A|-7-------5---7-------------------|---------------------------------|
E|---------------------------------|---------------------------------|



   Bm                                Em
e|---------------------------------|---------------------------------|
B|---------7-----------------------|---------------------------------|
G|------------------------(7)------|-9-------------------------------|
D|---------------------------------|---------------------------------|
A|---------------------------------|---------------------------------|
E|---------------------------------|---------------------------------|




INTERLUDE



e|---------------------------------|---------------------------------|
B|---------------------------------|---------------------------------|
G|-4-----------5-----------5-------|-6-----------5-----------5-------|
D|---------------------------------|---------------------------------|
A|---------------------------------|---------------------------------|
E|---------------------------------|---------------------------------|




e|---------------------------------|---------------------------------|
B|---------------------------------|---------------------------------|
G|-4-----------5-----------5-------|-6-----------5-------------------|
D|---------------------------------|---------------------------------|
A|---------------------------------|-----------------------------5--/|
E|---------------------------------|---------------------------------|




VERSE


   Em                                Am
e|---------------------------------|---------------------------------|
B|---------------------------------|---------------------------------|
G|-------------------------4-------|---------------------------------|
D|-----------------5---------------|-7-------7---5---7---7-5-----5---|
A|-7-------7---7-------------------|-------------------------7-------|
E|---------------------------------|---------------------------------|



   Em
e|-----------------------------10--|-12----------------------10--12--|
B|-----------------8---10--12------|---------------------12----------|
G|---------7-/-9-------------------|---------------------------------|
D|-7-b-9---------------------------|---------------------------------|
A|---------------------------------|---------------------------------|
E|---------------------------------|---------------------------------|




e|/12------12------10--------------|/7-------7-------7-p-5-------5b7-|
B|-------------12------12----------|------------------------(8)------|
G|---------------------------------|---------------------------------|
D|---------------------------------|---------------------------------|
A|---------------------------------|---------------------------------|
E|---------------------------------|---------------------------------|



   B7
e|-----7---------------------------|---------19-\-17-15--------------|
B|---------------------------------|---------------------17--15------|
G|---------------------------------|-----------------------------16--|
D|---------------------------------|---------------------------------|
A|---------------------------------|---------------------------------|
E|---------------------------------|---------------------------------|



   Em
e|---------------------------------|---------------------------------|
B|(17)-----15------10b12---8-------|-10b12---10b12---10--8-----------|
G|-----------------------------9---|-------------------------9-------|
D|---------------------------------|---------------------------------|
A|---------------------------------|---------------------------------|
E|---------------------------------|---------------------------------|



   Am
e|---------------------------------|---------------------------------|
B|-10b12---10b12---10--8-------10b12-10--8-------10b12---8-----------|
G|-------------------------9-------|---------9---------------9-------|
D|---------------------------------|---------------------------------|
A|---------------------------------|---------------------------------|
E|---------------------------------|---------------------------------|



   Em                                Am
e|-15----------14----------12------|-------------------------5---7---|
B|---------------------------------|-----8-------10b12---8-----------|
G|---------------------------------|---------------------------------|
D|---------------------------------|---------------------------------|
A|---------------------------------|---------------------------------|
E|---------------------------------|---------------------------------|



   Em
e|-7p5-----------------------------|---------------------------------|
B|-----8---------------------------|---------------------------------|
G|---------9-----------------------|-------------------------7-------|
D|---------------------------------|----------------/9---------------|
A|---------------------------------|---------------------------------|
E|---------------------------------|---------------------------------|




CHORUS


   Bm                                Em
e|---------------------------------|---------------------------------|
B|---------7-----------------------|---------------------------------|
G|-------------------------7-------|-9-----------------------7-------|
D|---------------------------------|----------------/9---------------|
A|---------------------------------|---------------------------------|
E|---------------------------------|---------------------------------|



   Bm                                Em
e|---------------------------------|---------------------------------|
B|---------7-----------------------|---------------------------------|
G|-------------------------7-------|-9-------------------------------|
D|---------------------------------|---------------------9---7---5---|
A|---------------------------------|---------------------------------|
E|---------------------------------|---------------------------------|



   C                                 B7
e|---------------------------------|---------------------------------|
B|---------------------------------|---------------------------------|
G|---------------------------------|---------------------------------|
D|-7-------7---5---7-------7---5---|-7-------7---5---7---7-5---------|
A|---------------------------------|-------------------------7---5---|
E|---------------------------------|---------------------------------|



   Em
e|---------------------------------|---------------------------------|
B|---------------------------------|---------------------------------|
G|---------------------------------|-------------------------7-------|
D|-----------------5-------7---5---|-9-------9---7---9---------------|
A|-7-------5---7-------------------|---------------------------------|
E|---------------------------------|---------------------------------|



   Bm                                Em
e|---------------------------------|---------------------------------|
B|---------7-----------------------|---------------------------------|
G|-------------------------7-------|-9-----------------------7-------|
D|---------------------------------|----------------/9---------------|
A|---------------------------------|---------------------------------|
E|---------------------------------|---------------------------------|



   Bm                                Em
e|---------------------------------|---------------------------------|
B|---------7-----------------------|---------------------------------|
G|-------------------------7-------|-9-------------------------------|
D|---------------------------------|---------------------9---7---5---|
A|---------------------------------|---------------------------------|
E|---------------------------------|---------------------------------|



   C                                 B7
e|---------------------------------|---------------------------------|
B|---------------------------------|---------------------------------|
G|---------------------------------|---------7-----------------------|
D|-7-------7---5---7---7-5---------|-7-/-9-----------9-\-7---5-------|
A|-------------------------7---5---|-----------------------------5---|
E|---------------------------------|---------------------------------|



   Em
e|---------------------------------|---------------------------------|
B|---------------------------------|---------------------------------|
G|---------------------------------|-------------------------7-------|
D|-----------------5-------7---5---|-9-------9---7---9---------------|
A|-7-------5---7-------------------|---------------------------------|
E|---------------------------------|---------------------------------|



   Bm                                Em
e|---------------------------------|---------------------------------|
B|---------7-----------------------|---------------------------------|
G|-------------------------7-------|-9-------------------------------|
D|---------------------------------|---------------------------------|
A|---------------------------------|---------------------------------|
E|---------------------------------|---------------------------------|




OUTRO



e|---------------------------------|---------------------------------|
B|---------------------------------|---------------------------------|
G|-4-----------5-----------5-------|-6-----------5-----------5-------|
D|---------------------------------|---------------------------------|
A|---------------------------------|---------------------------------|
E|---------------------------------|---------------------------------|




e|---------------------------------|---------------------------------|
B|---------------------------------|---------------------------------|
G|-4-----------5-----------5-------|-6-----------5-----------5-------|
D|---------------------------------|---------------------------------|
A|---------------------------------|---------------------------------|
E|---------------------------------|---------------------------------|




e|---------------------------------|---------------------------------|
B|---------------------------------|---------------------------------|
G|-4-----------5-----------5-------|-6-----------5-------------------|
D|---------------------------------|---------------------------------|
A|---------------------------------|---------------------------------|
E|---------------------------------|-------------------------7-\-----|




e|---------------------------------|---------------------------------|
B|---------------------------------|---------------------------------|
G|---------------------------------|---------------------------------|
D|---------------------------------|---------------------------------|
A|---------------------------------|---------------------------------|
E|-0-/-----------------------------|---------------------------------|
comments
We did not receive enough feedback on this tab! Please rate:
print report bad tab
1 2 3 4 5
I want to post or [tab]
guest
You may want to rate the tab now too:
select rating
Please do not post tabs as comments. Select "correction" instead!