Oops, an error
Loading. Please wait.

Slaughter On Tenth Avenue Tab

ver1
ver1

Whole song

Interactive

More versions @911Tabs.com
17,896 views 39 this week
1 commentread comment
1 2 3 4 5
excellent!
x 1
Autoscroll
+/-
esc
set tempo
stop
Contributor
Hey! There's an official Ultimate Guitar app which is ideal
for learning songs when you're away from computer. Get the app
WARNING: You are trying to view
                                    content from Ultimate-Guitar.com
                                    in an unauthorized application,
                                    which is prohibited.

                                    Please use an official Ultimate
                                    Guitar Tabs application for iPhone,
                                    iPad or Android to access legitimate
                                    chords, guitar, bass, and drum tabs
                                    from Ultimate-Guitar.com database.

                                    Type "ultimate guitar tabs" in Apple
                                    App Store's or Android Market's
                                    search to find the application.
SLAUGHTER ON 10TH AVENUE


The Ventures


INTRO


e|---------------------------------|-6--\--3-------------------------|
B|---------------------------------|-5--\--2-------------------------|
G|---------------------------------|-6--\--3-------------------------|
D|---------------------------------|---------------------------------|
A|---------------------------------|---------------------------------|
E|---------------------------------|---------------------------------|





e|-6-------------------------------|---------------------------------|
B|-5-------------------------------|---------------------------------|
G|-6-------------------------------|---------------------------------|
D|---------------------------------|---------------------------------|
A|---------------------------------|---------------------------------|
E|---------------------------------|---------------------------------|





e|---------------------------------|---------------------------------|
B|---------------------------------|---------------------------------|
G|---------------------------------|---------------------------------|
D|---------------------------------|---------------------------------|
A|---------------------------------|---------------------------------|
E|---------------------------------|---------------------------------|




   D
e|---------------------------------|---------------------------------|
B|---------------------------------|---------------------------------|
G|---------------------------------|---------------------------------|
D|-------------7-------------------|-------------7-------------------|
A|-5-------------------------------|-5-------------------------------|
E|-------------------------5-------|-------------------------5-------|





e|---------------------------------|---------------------------------|
B|---------------------------------|---------------------------------|
G|---------------------------------|---------------------------------|
D|-------------7-------------------|-------------7-----------7-------|
A|-5-------------------------------|-5-------------------------------|
E|-------------------------5-------|---------------------------------|





VERSE


   D
e|---------------------------------|---------------------------------|
B|-7-------------------------------|-----------------7---5-------7---|
G|---------------------------------|-------------------------7-------|
D|---------------------------------|---------------------------------|
A|---------------------------------|---------------------------------|
E|---------------------------------|---------------------------------|




   F#m
e|---------------------------------|---------------------------------|
B|-5---------------5---------------|---------------------------------|
G|-------------6-------------------|---------------------------------|
D|---------------------------------|---------------------------------|
A|---------------------------------|---------------------------------|
E|---------------------------------|---------------------------------|




   G                                 A               Bm
e|-----------------3---------------|-5-------------------------------|
B|-3---------------3---------------|------5----8-----7-P-5-----------|
G|-4-------------------------------|----------------------------7----|
D|---------------------------------|---------------------------------|
A|---------------------------------|---------------------------------|
E|---------------------------------|---------------------------------|




   A               Bm                N.C. (slide)
e|-5-------------------------------|---------------------------------|
B|-5-------------------------------|---------------------------------|
G|-6-------------------------------|---------------------------------|
D|---------------------------------|-------------------------7-------|
A|---------------------------------|---------------------------------|
E|---------------------------------|---------------------------------|





VERSE


   D
e|---------------------------------|---------------------------------|
B|-7-------------------------------|-----------------7---5-------7---|
G|---------------------------------|-------------------------7-------|
D|---------------------------------|---------------------------------|
A|---------------------------------|---------------------------------|
E|---------------------------------|---------------------------------|




   F#m
e|---------------------------------|---------------------------------|
B|-5---------------5---------------|---------------------------------|
G|-------------6-------------------|---------------------------------|
D|---------------------------------|---------------------------------|
A|---------------------------------|---------------------------------|
E|---------------------------------|---------------------------------|




   G                                 A               Bm
e|-----------------3---------------|-5-------------------------------|
B|-3---------------3---------------|------5----8-----7-P-5-----------|
G|-4-------------------------------|----------------------------7----|
D|---------------------------------|---------------------------------|
A|---------------------------------|---------------------------------|
E|---------------------------------|---------------------------------|




   A               Bm                A               Bm      C#m
e|-5-------------------------------|---------------------------------|
B|-5-------------------------------|---------------------------------|
G|-6-------------------------------|-----------------4-------6-------|
D|---------------------------------|---------------------------------|
A|---------------------------------|---------------------------------|
E|---------------------------------|---------------------------------|





CHORUS


   Bm                                Bb
e|---------------------------------|---------------------------------|
B|-7-----------7---7---------------|---------1-------3----1----------|
G|-7-----------7---7---------------|-3-------0-------2----0----3-----|
D|---------------------------------|-3-------------------------3-----|
A|---------------------------------|---------------------------------|
E|---------------------------------|---------------------------------|




   D                                 Bb          A
e|---------------------------------|---------------------------------|
B|-7-------------------------------|---------------------------------|
G|-7-------------------------------|---------------------------------|
D|-7-------------------------------|-3-----------2-----------7-------|
A|---------------------------------|-1-----------0-------------------|
E|---------------------------------|---------------------------------|





VERSE


   D
e|---------------------------------|---------------------------------|
B|-7-------------------------------|-------------5---7---5-------7---|
G|---------------------------------|---------7---------------7-------|
D|---------------------------------|-----7---------------------------|
A|---------------------------------|---------------------------------|
E|---------------------------------|---------------------------------|




   F#m
e|---------------------------------|---------------------------------|
B|-5---------------5---------------|-------------5-B-7---5-B-7-R-5---|
G|-------------6-------------------|---------------------------------|
D|---------------------------------|---------------------------------|
A|---------------------------------|---------------------------------|
E|---------------------------------|---------------------------------|




   G                                 A               Bm
e|-----------------3---------------|-5-------------------------------|
B|-3---------------3---------------|------5----8-----7-P-5-----------|
G|-4-------------------------------|----------------------------7----|
D|---------------------------------|---------------------------------|
A|---------------------------------|---------------------------------|
E|---------------------------------|---------------------------------|




   A               Bm                A               Bm      C#m
e|-5-------------------------------|---------------------------------|
B|-5-------------------------------|---------------------------------|
G|-6-------------------------------|-----------------4-------6-------|
D|---------------------------------|---------------------------------|
A|---------------------------------|---------------------------------|
E|---------------------------------|---------------------------------|





CHORUS


   Bm                                Bb
e|-2-----------2-----------2-------|-----1-------------------1-------|
B|-----3-----------3---------------|---------1-------3---1-------1---|
G|---------4-----------4-----------|-3-----------3-------------------|
D|---------------------------------|---------------------------------|
A|---------------------------------|---------------------------------|
E|---------------------------------|---------------------------------|




   D                                                 X X X X x   X
e|-2-------------------------------|---------------------------------|
B|-3-------------------------------|---------------------------------|
G|-2-------------------------------|---------------------------------|
D|---------------------------------|---------------------------------|
A|---------------------------------|---------------------------------|
E|---------------------------------|---------------------------------|





INTERLUDE


   D
e|---------------------------------|---------------------------------|
B|-7-----------7-----------7-------|-----7-------7---7---7---7---7---|
G|-7-----------7-----------7-------|-----7-------7---7---7---7---7---|
D|-7-----------7-----------7-------|-----7-------7---7---7---7---7---|
A|-9-----------9-----------9-------|-----9-------9---9---9---9---9---|
E|10----------10----------10-------|----10------10--10--10--10--10---|




   D#
e|---------------------------------|---------------------------------|
B|-8-----------8-----------8-------|-----8-------8---8---8---8---8---|
G|-8-----------8-----------8-------|-----8-------8---8---8---8-------|
D|-8-----------8-----------8-------|-----8-------8---8---8---8-------|
A|10----------10----------10-------|----10------10--10--10--10-------|
E|11----------11----------11-------|----11------11--11--11--11-------|





BRIDGE


   D#                                Cm
e|---------------------------------|-------------8-------------------|
B|-7---7---8---9---------------8---|-7---7---8-------------------8---|
G|---------------------------------|---------------------------------|
D|---------------------------------|---------------------------------|
A|---------------------------------|---------------------------------|
E|---------------------------------|---------------------------------|




   D#                                Cm
e|---------------------------------|-10--8---10--8-----------6-------|
B|-7---7---8---8---9---8---9---8---|---------------------------------|
G|---------------------------------|---------------------------------|
D|---------------------------------|---------------------------------|
A|---------------------------------|---------------------------------|
E|---------------------------------|---------------------------------|




   D#                                G#
e|-8-----------------------11------|---------------------------------|
B|-----------------11--------------|-9-----------------------11-\-8--|
G|---------------------------------|---------------------------------|
D|---------------------------------|---------------------------------|
A|---------------------------------|---------------------------------|
E|---------------------------------|---------------------------------|




   G
e|---------------------------------|---------------------------------|
B|---------3-----------3-------3---|---------------------------------|
G|-5B7---------5B7---------5B7-----|-5B7-----3B5-----2B4-------------|
D|---------------------------------|---------------------------------|
A|---------------------------------|---------------------------------|
E|---------------------------------|-------------------------3-------|





VERSE


   C
e|---------------------------------|---------------------------------|
B|---------------------------------|---------------------------------|
G|---------------------------------|---------------------------------|
D|-2-------------------------------|-------------0---2---0-------2---|
A|---------------------------------|---------3---------------3-------|
E|---------------------------------|-----3---------------------------|




   Em
e|---------------------------------|---------------------------------|
B|---------------------------------|---------------------------------|
G|---------------------------------|---------------------------------|
D|---------2---2-----------0-H-2---|---------------------------------|
A|-----------------0-H-2-----------|-----------------5-B-7---5-B-7---|
E|-0-------------------------------|-0-------------------------------|




   F                                 G               Am
e|---------------------------------|---------------------------------|
B|---------------------------------|---------------------------------|
G|---------------------5-------5---|---------------------------------|
D|-----------------5B7-----5B7-----|-5---------------3---2-----------|
A|-3-------------------------------|-------------5-----------5---3---|
E|---------------------------------|---------------------------------|




   G               Am                G
e|---------------------------------|---------------------------------|
B|---------------------------------|---------------------------------|
G|---------0---------------0-------|-------------------------4-------|
D|---------------------------------|---------5---5---7---------------|
A|-2-----------2---3-----------3---|-5-------------------------------|
E|---------------------------------|---------------------------------|




   Am                                G#
e|---------------------------------|---------------------------------|
B|-1-----------1-----------1-------|-----------------1---------------|
G|-----2-----------2---------------|-------1----3---------3----1-----|
D|---------2-----------2-----------|---------------------------------|
A|---------------------------------|---------------------------------|
E|---------------------------------|---------------------------------|
  P.M.........................



   C
e|---------------------------------|---------------------------------|
B|-5-------------------------------|---------------------------------|
G|-5-------------------------------|---------------------------------|
D|-5-------------------------------|---------------------------1-----|
A|---------------------------------|------------1----3----4----------|
E|---------------------------------|-------4-------------------------|





VERSE


   C#
e|---------------------------------|---------------------------------|
B|---------------------------------|---------------------------------|
G|---------------------------------|---------------------------------|
D|-3---------------3---------------|-----------------3-----------3---|
A|---------------------------------|---------4---6-------6---4-------|
E|-------------4-------------------|-----4---------------------------|




   Fm
e|---------------------------------|---------------------------------|
B|---------------------------------|---------------------------------|
G|---------------------------------|---------------------------------|
D|---------2---2-----------1-H-3---|---------------------------------|
A|-----------------1-H-3-----------|-----------------6-B-8---6-B-8---|
E|-1-------------------------------|-1-------------------------------|




   F#                                G#              Bbm
e|---------------------------------|---------------------------------|
B|---------------------------------|---------------------------------|
G|---------------------6-------6---|---------------------------------|
D|-----------------6B8-----6B8-----|-6---------------4---3-----------|
A|-4-------4-----------------------|-------------6-----------6---4---|
E|---------------------------------|---------------------------------|




   G#              Bbm               G#
e|---------------------------------|---------------------------------|
B|---------------------------------|---------------------------------|
G|---------1---------------1-------|-------------------------5-------|
D|---------------------------------|---------6---6---8---------------|
A|-3-----------3---4-----------4---|-6-------------------------------|
E|---------------------------------|---------------------------------|




   Bbm                               A
e|---------------------------------|---------------------------------|
B|-2-----------2-----------2-------|-----------------2---------------|
G|-----3-----------3---------------|-------2----4---------4----2-----|
D|---------3-----------3-----------|---------------------------------|
A|---------------------------------|---------------------------------|
E|---------------------------------|---------------------------------|
  P.M.........................




OUTRO


   C#                                A
e|---------------------------------|---------------------------------|
B|-2-----------2-----------2-------|-----------------2---------------|
G|-----1-----------1---------------|-------2----4---------4----2-----|
D|---------3-----------3-----------|---------------------------------|
A|---------------------------------|---------------------------------|
E|---------------------------------|---------------------------------|
  P.M.........................



   C#                                A
e|---------------------------------|---------------------------------|
B|-2-----------2-----------2-------|-----------------2---------------|
G|-----1-----------1---------------|-------2----4---------4----2-----|
D|---------3-----------3-----------|---------------------------------|
A|---------------------------------|---------------------------------|
E|---------------------------------|---------------------------------|
  P.M.........................



   C#                                A
e|---------------------------------|---------------------------------|
B|-2-----------2-----------2-------|-----------------2---------------|
G|-----1-----------1---------------|-------2----4---------4----2-----|
D|---------3-----------3-----------|---------------------------------|
A|---------------------------------|---------------------------------|
E|---------------------------------|---------------------------------|....
  P.M.........................
comments
We did not receive enough feedback on this tab! Please rate:
print report bad tab
1 2 3 4 5
1 comment total.
0 reply
marshmellow666 wrote on February 4 2009, 07:45 pm

god bless america and this band

I want to post or [tab]
guest
You may want to rate the tab now too:
select rating
Please do not post tabs as comments. Select "correction" instead!