Oops, an error
Loading. Please wait.

Sound Of Silence Tab

5,436 views 9 this week
no commentswrite comment
1 2 3 4 5
excellent!
x 2
Autoscroll
+/-
esc
set tempo
stop
Contributor
Hey! There's an official Ultimate Guitar app which is ideal
for learning songs when you're away from computer. Get the app
WARNING: You are trying to view
                                    content from Ultimate-Guitar.com
                                    in an unauthorized application,
                                    which is prohibited.

                                    Please use an official Ultimate
                                    Guitar Tabs application for iPhone,
                                    iPad or Android to access legitimate
                                    chords, guitar, bass, and drum tabs
                                    from Ultimate-Guitar.com database.

                                    Type "ultimate guitar tabs" in Apple
                                    App Store's or Android Market's
                                    search to find the application.
SOUND OF SILENCE


The Ventures



  INTRO


   Dm
e|---------------------------------|---------------------------------|
B|---------------------------------|---------------------------------|
G|---------------------------------|-------------------------2---2---|
D|---------------------------------|-----------------3---3-----------|
A|---------------------------------|---------5---5-------------------|
E|---------------------------------|---------------------------------|

e|-----5-------5-------5-------5---|-----5-------5-------5-------5---|
B|---------6---------------6-------|---------6---------------6-------|
G|-7---------------7---------------|-7---------------7---------------|
D|---------------------------------|---------------------------------|
A|---------------------------------|---------------------------------|
E|---------------------------------|---------------------------------|





  VERSE


   C
e|---------------------------------|---------------------------------|
B|---------------------------------|---------------------------------|
G|---------------------------------|---------------------------------|
D|-5-------------------------------|-----------------2---2---5---5---|
A|---------------------------------|---------3---3-------------------|
E|---------------------------------|---------------------------------|

e|-----3-------3-------3-------3---|-----3-------3-------3-------3---|
B|---------5---------------5-------|---------5---------------5-------|
G|-5---------------5---------------|-5---------------5---------------|
D|---------------------------------|---------------------------------|
A|---------------------------------|---------------------------------|
E|---------------------------------|---------------------------------|




   Dm
e|---------------------------------|---------------------------------|
B|---------------------------------|---------------------------------|
G|---------------------------------|-----------------2---2---5---5---|
D|-3-------------------------------|---------3---3---3---3---7---7---|
A|---------------------------------|---------------------------------|
E|---------------------------------|---------------------------------|

e|-----5-------5-------5-------5---|-----5-------5-------5-------5---|
B|---------6---------------6-------|---------6---------------6-------|
G|-7---------------7---------------|-7---------------7---------------|
D|---------------------------------|---------------------------------|
A|---------------------------------|---------------------------------|
E|---------------------------------|---------------------------------|




   Bb              F
e|---------------------------------|---------------------------------|
B|---------------------------------|---------------------------------|
G|-7-------7---5-------------------|-----------------2---2---5---5---|
D|-8-------8---7-------------------|---------3---3---3---3---7---7---|
A|---------------------------------|---------------------------------|
E|---------------------------------|---------------------------------|

e|-----6-------6-------8-------8---|-----8-------8-------8-------8---|
B|---------6---------------10------|---------10--------------10------|
G|-7---------------10--------------|-10--------------10--------------|
D|---------------------------------|---------------------------------|
A|---------------------------------|---------------------------------|
E|---------------------------------|---------------------------------|




   Bb              F
e|---------------------------------|-----------------|
B|---------------------------------|-----------------|
G|-7-------7---5-------------------|-----------------|
D|-8-------8---7-------------------|---------3---3---|
A|---------------------------------|-----------------|
E|---------------------------------|-----------------|

e|-----6-------6-------8-------8---|-----8-------8---|
B|---------6---------------10------|---------10------|
G|-7---------------10--------------|-10--------------|
D|---------------------------------|-----------------|
A|---------------------------------|-----------------|
E|---------------------------------|-----------------|




   Bb
e|---------------------------------|---------------------------------|
B|-3-------3-------3---5-------6---|---------6---6---5---3-----------|
G|-3-------3-------3---3-------8---|---------8---8---3---3-------5---|
D|---------------------------------|-----------------------------7---|
A|---------------------------------|---------------------------------|
E|---------------------------------|---------------------------------|

e|-----6-------6-------6-------6---|-----10------10------10------10--|
B|---------6---------------6-------|---------11--------------11------|
G|-7---------------7---------------|-10--------------10--------------|
D|---------------------------------|---------------------------------|
A|---------------------------------|---------------------------------|
E|---------------------------------|---------------------------------|




   F
e|---------------------------------|-----------------|
B|---------------------------------|-----------------|
G|---------------------7-------5---|-----------------|
D|---------------------8-------7---|-7---------------|
A|---------------------------------|-8---------------|
E|---------------------------------|-----------------|

e|-----8-------8-------8-------8---|-----8-------8---|
B|---------10--------------10------|---------10------|
G|-10--------------10--------------|-10--------------|
D|---------------------------------|-----------------|
A|---------------------------------|-----------------|
E|---------------------------------|-----------------|




   Dm              F                 C
e|---------------------------------|---------------------------------|
B|---------------------------------|---------------------------------|
G|---------------------------------|-5-------------------------------|
D|-------------------------3---3---|---------------------------------|
A|---------------------------------|-----------------------------7---|
E|---------------------------------|---------------------------------|

e|-----5-------5-------8-------8---|-----3-------3-------3-------5---|
B|---------6---------------10------|---------5---------------5-------|
G|-7---------------10--------------|-5---------------5---------------|
D|---------------------------------|---------------------------------|
A|---------------------------------|---------------------------------|
E|---------------------------------|---------------------------------|




   Dm
e|---------------------------------|-------------------------5---5---|
B|---------------------------------|-----------------6---6-----------|
G|---------------------------------|---------7---7-------------------|
D|---------------------------------|---------------------------------|
A|-8-------5-----------------------|---------------------------------|
E|---------------------------------|---------------------------------|

e|-----5-------5-------5-------5---|-----5-------5-------5-------5---|
B|---------6---------------6-------|---------6---------------6-------|
G|-7---------------7---------------|-7---------------7---------------|
D|---------------------------------|---------------------------------|
A|---------------------------------|---------------------------------|
E|---------------------------------|---------------------------------|





  VERSE


   C
e|-3-------------------------------|-------------------------3---3---|
B|---------------------------------|-----------------5---5-----------|
G|---------------------------------|---------5---5-------------------|
D|---------------------------------|---------------------------------|
A|---------------------------------|---------------------------------|
E|---------------------------------|---------------------------------|




   Dm
e|---------------------------------|-------------------------8---8---|
B|-6-------------------------------|-----------------10--10----------|
G|---------------------------------|--------/10--10------------------|
D|---------------------------------|---------------------------------|
A|---------------------------------|---------------------------------|
E|---------------------------------|---------------------------------|




   Bb              F
e|-10------10--8-------------------|-------------------------8---8---|
B|---------------------------------|-----------------10--10----------|
G|---------------------------------|---------10--10------------------|
D|---------------------------------|---------------------------------|
A|---------------------------------|---------------------------------|
E|---------------------------------|---------------------------------|




   Bb              F
e|-10------10--8-------------------|-----------------|
B|---------------------------------|-----------------|
G|---------------------------------|-----------------|
D|---------------------------------|-----------------|
A|---------------------------------|-----------------|
E|---------------------------------|---------1---1---|




   Bb
e|---------------------------------|---------------------------------|
B|---------------------------------|---------------------------------|
G|---------------------------------|---------------------------------|
D|---------------------------------|---------------------------------|
A|-5-------5-------5---7-------8---|---------8---8---7---5-------3---|
E|---------------------------------|---------------------------------|




   F
e|---------------------------------|-----------------|
B|---------------------------------|-----------------|
G|---------------------------------|-----------------|
D|---------------------------------|-----------------|
A|---------------------5-------3---|-----------------|
E|---------------------------------|-5---------------|




   Dm              F                 C
e|---------------------------------|-8-------------------------------|
B|---------------------------------|-8---------------------------8---|
G|-------------------------10----9-|-----------------------------9---|
D|---------------------10----------|---------------------------------|
A|---------------------------------|---------------------------------|
E|---------------------------------|---------------------------------|




   Dm
e|---------------------------------|-------------------------5---5---|
B|-10------6-----------------------|-----------------6---6-----------|
G|-10------7-----------------------|---------7---7-------------------|
D|---------------------------------|---------------------------------|
A|---------------------------------|---------------------------------|
E|---------------------------------|---------------------------------|





  VERSE


   C
e|--3------------------------------|-------------------------3---3---|
B|-5-------------------------------|-----------------5---5-----------|
G|---------------------------------|---------5---5-------------------|
D|---------------------------------|---------------------------------|
A|---------------------------------|---------------------------------|
E|---------------------------------|---------------------------------|




   Dm
e|-3P1-----------------------------|--------------------------8---8--|
B|---------------------------------|-----------------10--10--10--10--|
G|---------------------------------|--------/10--10--10--10----------|
D|---------------------------------|---------------------------------|
A|---------------------------------|---------------------------------|
E|---------------------------------|---------------------------------|




   Bb              F
e|-10------10---8------------------|--------------------------8---8--|
B|-11------11--10------------------|-----------------10--10--10--10--|
G|---------------------------------|---------10--10--10--10----------|
D|---------------------------------|---------10--10------------------|
A|---------------------------------|---------------------------------|
E|---------------------------------|---------------------------------|




   Bb              F
e|/10------10---8------------------|-----------------|
B|/11------11--10------------------|---------10--10--|
G|---------------------------------|---------10--10--|
D|---------------------------------|-----------------|
A|---------------------------------|-----------------|
E|---------------------------------|-----------------|




   Bb
e|-10------10------10--10--12--13--|---------13--13--12--10------8---|
B|-11------10------11--11--11--15--|---------15--15--11--11-----10---|
G|---------------------------------|---------------------------------|
D|---------------------------------|---------------------------------|
A|---------------------------------|---------------------------------|
E|---------------------------------|---------------------------------|




   F
e|---------------------10------8---|-----------------|
B|---------------------11-----10---|-10--------------|
G|---------------------------------|-10--------------|
D|---------------------------------|-----------------|
A|---------------------------------|-----------------|
E|---------------------------------|-----------------|




   Dm              F                 C
e|---------------------------------|---------------------------------|
B|---------------------------------|-----------------------------8---|
G|-------------------------10------|-9---------------------------9---|
D|---------------------10----------|---------------------------------|
A|---------------------------------|---------------------------------|
E|---------------------------------|---------------------------------|




   Dm
e|---------------------------------|---------------------------------|
B|-10------6-----------------------|---------------------------------|
G|-10------7-----------------------|---------------------------------|
D|---------------------------------|---------------------------------|
A|---------------------------------|---------------------------------|
E|---------------------------------|---------------------------------|

e|---------------------------------|---------------------------------|
B|---------------------------------|---------------------------------| Sax (8va
G|---------------------------------|-------------------------2---2---|  lower)
D|---------------------------------|-----------------3---3-----------|
A|---------------------------------|---------5---5-------------------|
E|---------------------------------|---------------------------------|





  VERSE


   C
e|---------------------------------|---------------------------------|
B|---------------------------------|---------------------------------|
G|---------------------------------|---------------------------------|
D|-5-------------------------------|-----------------2---2---5---5---|
A|---------------------------------|---------3---3-------------------|
E|---------------------------------|---------------------------------|




   Dm
e|---------------------------------|---------------------------------|
B|---------------------------------|---------------------------------|
G|---------------------------------|-----------------2---2---5---5---|
D|-3-------------------------------|---------3---3-------------------|
A|---------------------------------|---------------------------------|
E|---------------------------------|---------------------------------|




   Bb              F
e|---------------------------------|---------------------------------|
B|---------------------------------|---------------------------------|
G|-7-------7---5-------------------|-----------------2---2---5---5---|
D|---------------------------------|---------3---3-------------------|
A|---------------------------------|---------------------------------|
E|---------------------------------|---------------------------------|




   Bb              F
e|---------------------------------|-----------------|
B|---------------------------------|-----------------|
G|-7-------7---5-------------------|-----------------|
D|---------------------------------|-------------3---|
A|---------------------------------|-----------------|
E|---------------------------------|-----------------|




   Bb
e|---------------------------------|---------------------------------|
B|-3-------3-------3---5-------6---|---------6---6---5---3-----------|
G|---------------------------------|-----------------------------5---|
D|---------------------------------|---------------------------------|
A|---------------------------------|---------------------------------|
E|---------------------------------|---------------------------------|




   F
e|---------------------------------|-----------------|
B|---------------------------------|-----------------|
G|-------------------------7---5---|-----------------|
D|---------------------------------|-7---------------|
A|---------------------------------|-----------------|
E|---------------------------------|-----------------|




   Dm              F                 C
e|---------------------------------|---------------------------------|
B|---------------------------------|---------------------------------|
G|---------------------------------|-5-------------------------------|
D|-------------------------3---3---|---------------------------------|
A|---------------------------------|-----------------------------7---|
E|---------------------------------|---------------------------------|




   Dm
e|---------------------------------|---------------------------------|
B|---------------------------------|---------------------------------|
G|---------------------------------|---------------------------------|
D|---------------------------------|---------------------------------|
A|-8---8---5-----------------------|---------------------------------|
E|---------------------------------|---------------------------------|

e|---------------------------------|-------------------------5---5---|
B|---------------------------------|-----------------6---6-----------| Guitar
G|---------------------------------|---------7---7-------------------|
D|---------------------------------|---------------------------------|
A|---------------------------------|---------------------------------|
E|---------------------------------|---------------------------------|





  VERSE


   C
e|--3------------------------------|-------------------------3---3---|
B|-5-------------------------------|-----------------5---5-----------|
G|5--------------------------------|---------5---5-------------------|
D|---------------------------------|---------------------------------|
A|---------------------------------|---------------------------------|
E|---------------------------------|---------------------------------|




  Dm
e|--5------------------------------|--------------------------8---8--|
B|-6-------------------------------|-----------------10--10----------|
G|7--------------------------------|---------10--10------------------|
D|---------------------------------|---------------------------------|
A|---------------------------------|---------------------------------|
E|---------------------------------|---------------------------------|




   Bb              F
e|-10------10---8------------------|-------------------------8---8---|
B|---------------------------------|-----------------10--10----------|
G|---------------------------------|---------10--10------------------|
D|---------------------------------|---------------------------------|
A|---------------------------------|---------------------------------|
E|---------------------------------|---------------------------------|




   Bb              F
e|-10------10---8------------------|-----------------|
B|---------------------------------|---------10--10--|
G|---------------------------------|---------10--10--|
D|---------------------------------|-----------------|
A|---------------------------------|-----------------|
E|---------------------------------|-----------------|




   Bb
e|-10------10------10--10--12--13--|-------------13--12--10----------|
B|-11------10------11--11--11--15--|-------------15--11--11----------|
G|---------------------------------|---------------------------------|
D|---------------------------------|---------------------------------|
A|---------------------------------|---------------------------------|
E|---------------------------------|---------------------------------|




   F
e|-8------------------/10------8---|-----------------|
B|10------------------/11-----10---|-10--------------|
G|---------------------------------|-10--------------|
D|---------------------------------|-----------------|
A|---------------------------------|-----------------|
E|---------------------------------|-----------------|




   Dm              F                 C   Slow
e|---------------------------------|-8-------------------------------|
B|---------------------------------|-8-----------------------8-------|
G|-------------------------10------|-9----------------------9--------|
D|---------------------10----------|---------------------------------|
A|---------------------------------|---------------------------------|
E|---------------------------------|---------------------------------|




   Dm
e|---------------------------------|---------------------------------|
B|-10------6-----------------------|---------------------------------|
G|10------7------------------------|---------------------------------|
D|---------------------------------|---------------------------------|
A|---------------------------------|---------------------------------|
E|---------------------------------|---------------------------------|

e|-------------5-------5-------5---|-----5-------5-------5------5----|
B|---------6---------------6-------|---------6-----------------6-----|
G|-----------------7---------------|-7---------------7--------7------|
D|---------------------------------|-------------------------7-------|
A|---------------------------------|------------------------5--------|
E|---------------------------------|---------------------------------|
comments
We did not receive enough feedback on this tab! Please rate:
print report bad tab
1 2 3 4 5
I want to post or [tab]
guest
You may want to rate the tab now too:
select rating
Please do not post tabs as comments. Select "correction" instead!