Oops, an error
Loading. Please wait.

Stars On Guitars Tab

1,275 views 3 this week
no commentswrite comment
1 2 3 4 5
excellent!
x 1
add to favorites launch autoscroll
font size
0
reset
Autoscroll
+/-
esc
set tempo
stop
Contributor
WARNING: You are trying to view
                                    content from Ultimate-Guitar.com
                                    in an unauthorized application,
                                    which is prohibited.

                                    Please use an official Ultimate
                                    Guitar Tabs application for iPhone,
                                    iPad or Android to access legitimate
                                    chords, guitar, bass, and drum tabs
                                    from Ultimate-Guitar.com database.

                                    Type "ultimate guitar tabs" in Apple
                                    App Store's or Android Market's
                                    search to find the application.
STARS ON GUITARS


The Ventures


  INTRO



e|---------------------------------|---------------------------------|
B|---------------------------------|---------------------------------|
G|---------------------------------|---------------------------------|
D|---------------------------------|---------------------------------|
A|---------------------------------|---------------------------------|
E|-0-------0-----------0---2---3---|-------------3---3-\-2---2-------|




   A               G                 F           E
e|-5---5---5-------3---3---3-------|-1---1---1---0-----------0-------|
B|-5---5---5-------3---3---3-------|-1---1---1---0-----------0-------|
G|-6---6---6-------4---4---4-------|-2---2---2---1-----------1-------|
D|-7---7---7-------5---5---5-------|-3---3---3---2-----------2-------|
A|---------------------------------|---------------------------------|
E|---------------------------------|---------------------------------|




   A               G                 F           E
e|-5---5---5-------3---3---3-------|-1---1---1---0-------------------|
B|-5---5---5-------3---3---3-------|-1---1---1---0-------------------|
G|-6---6---6-------4---4---4-------|-2---2---2---1---------------2---|
D|-7---7---7-------5---5---5-------|-3---3---3---2-------2-----------|
A|---------------------------------|---------------------------------|
E|---------------------------------|---------------------------------|





    WALK DON’T RUN


   A               G                 F           E
e|---------------------------------|---------------------------------|
B|---------------------------------|-------------1-----------0-------|
G|---------------------------------|-----0---2-----------------------|
D|---------------------0---2---3---|---------------------------------|
A|-----0---2---3-------------------|---------------------------------|
E|---------------------------------|---------------------------------|




   A               G                 F               G
e|---------------------------------|---------------------------------|
B|---------------------------------|-----0---1-------0---------------|
G|-2-------------------------------|-----0---2-------0-------2-------|
D|---------------------0---2---3---|-------------------------3-------|
A|-----0---2---3-------------------|---------------------------------|
E|---------------------------------|---------------------------------|




   C                                 G
e|---------------------------------|---------------------------------|
B|-------------1-------------------|---------------------------------|
G|-------------0-------------------|---------------------------------|
D|-2-\-1---2---2-------------------|-----0---2---3---2-------0-------|
A|---------------------------------|---------------------------------|
E|---------------------------------|---------------------------------|




   C               F                 C               G
e|---------------------------------|---------------------------------|
B|-1---------------1---------------|-----------------3-------3-------|
G|-0---------------2---------------|-----------------4-------4-------|
D|-2---------------3---------------|-----------------5-------5-------|
A|---------------------------------|-3-------------------------------|
E|---------------------------------|---------------------------------|




   A                                 G
e|-5---5---5---5---5-\-------------|-3---3---3---3---3-\-------------|
B|-5---5---5---5---5-\-------------|-3---3---3---3---3-\-------------|
G|-6---6---6---6---6-\—------------|-4---4---4---4---4-\-------------|
D|-7---7---7---7---7-\-------------|-5---5---5---5---5-\-------------|
A|---------------------------------|---------------------------------|
E|---------------------------------|---------------------------------|




   F#                                F               E
e|-2---2---2---2---2-\-------------|-1---1---1---1---0-------0-------|
B|-2---2---2---2---2-\-------------|-1---1---1---1---0-------0-------|
G|-3---3---3---3---3-\-------------|-2---2---2---2---1-------1-------|
D|-4---4---4---4---4-\-------------|-3---3---3---3---2-------2-------|
A|---------------------------------|---------------------------------|
E|---------------------------------|---------------------------------|





    APACHE


   Am                                D
e|---------------------------------|-----------------17--15----------|
B|-------------13--15BR------------|-------------------------17------|
G|---------14----------------------|---------14--17------------------|
D|---------------------------------|---------------------------------|
A|---------------------------------|---------------------------------|
E|---------------------------------|---------------------------------|




   Am                                D
e|---------------------------------|-----------------17--15----------|
B|-------------13--15BR------------|---------------------------------|
G|---------14----------------------|---------14--17------------------|
D|---------------------------------|-----------------------------2--/|
A|---------------------------------|---------------------------------|
E|---------------------------------|---------------------------------|




   Am                                D
e|---------------------------------|---------------------------------|
B|---------------------------------|---------------------------------|
G|---------------------------------|---------------------------------|
D|-7---------------2-------7-------|-4-------------------------------|
A|---------------------------------|-----------------7-------5-------|
E|---------------------------------|---------------------------------|




   Am
e|---------------------------------|---------------------------------|
B|-------------13--15BR------------|---------15--13------------------|
G|---------------------------------|-----14----------14--------------|
D|---------------------------------|-------------------------2-----/-|
A|-7-------------------------------|---------------------------------|
E|---------------------------------|---------------------------------|




   Am                                D
e|---------------------------------|---------------------------------|
B|---------------------------------|---------------------------------|
G|---------------------------------|---------------------------------|
D|-7---------------2-------7-------|-4-------------------------------|
A|---------------------------------|-----------------7-------5-------|
E|---------------------------------|---------------------------------|




   Am
e|---------------------------------|---------------------------------|
B|-------------13--15BR------------|---------15--13------------------|
G|---------------------------------|-----14----------14--------------|
D|---------------------------------|---------------------------------|
A|-7-------------------------------|---------------------------------|
E|---------------------------------|---------------------------------|




   F
e|---------------------------------|---------------------------------|
B|---------------------------------|---------------------------------|
G|---------------------------------|---------------------------------|
D|-----3-3-3-----------3-3-3-------|-----3-3-3-----------3-3-3---3---|
A|-3-----------3-3-3-----------3-3-|-3-----------3-3-3---------------|
E|---------------------------------|---------------------------------|




   Am
e|---------------------------------|---------------------------------|
B|---------------------------------|---------------------------------|
G|---------------------------------|---------------------------------|
D|-2-------------------------------|---------------------------------|
A|-----------------0---------------|---------------------------------|
E|---------------------------------|---------------------------------|




   F
e|---------------------------------|---------------------------------|
B|---------------------------------|---------------------------------|
G|---------------------------------|---------------------------------|
D|-----3-3-3-----------3-3-3-------|-----3-3-3-----------------------|
A|-3-----------3-3-3-----------3-3-|-3-----------3-3-3---------------|
E|---------------------------------|---------------------------------|





    OUT OF LIMITS


   Em                                G
e|-----3---4---3-------3---4---3---|-----3---4---3-------3---4---3---|
B|-5---------------5---------------|-5---------------5---------------|
G|---------------------------------|---------------------------------|
D|---------------------------------|---------------------------------|
A|---------------------------------|---------------------------------|
E|---------------------------------|---------------------------------|




   A                                 B
e|-----3---4---3-------3---4---3---|-----3---5---3-------3---5---3---|
B|-5---------------5---------------|-5---------------5---------------|
G|---------------------------------|---------------------------------|
D|---------------------------------|---------------------------------|
A|---------------------------------|---------------------------------|
E|---------------------------------|---------------------------------|




   Em              G                 A               B
e|-----3---4---3-------3---4---3---|-----3---4---3-------3---5---3---|
B|-5---------------5---------------|-5---------------5---------------|
G|---------------------------------|---------------------------------|
D|---------------------------------|---------------------------------|
A|---------------------------------|---------------------------------|
E|---------------------------------|---------------------------------|





e|-7---7---7---7---7---7---7---7---|-7-------------------------------|
B|-7---7---7---7---7---7---7---7---|-7-------------------------------|
G|-8---8---8---8---8---8---8---8---|-8-------------------------------|
D|-9---9---9---9---9---9---9---9---|-9-------------------------------|
A|---------------------------------|---------------------------------|
E|---------------------------------|---------------------------------|




   D
e|---------------------------------|---------------------------------|
B|---------------------------------|---------------------------------|
G|---------2-------2---------------|-2-------------------------------|
D|-------------------------4-------|-----------------4---------------|
A|---------------------------------|---------------------------------|
E|---------------------------------|---------------------------------|




   F#m
e|---------------------------------|---------------------------------|
B|---------------------------------|---------------------------------|
G|---------2-------2---------------|-2-------------------------------|
D|-------------------------4-------|-----------------4---------------|
A|---------------------------------|---------------------------------|
E|---------------------------------|---------------------------------|




   G
e|---------------------------------|---------------------------------|
B|---------------------------------|---------------------------------|
G|---------4-------4---------------|-4-----------------------4---7---|
D|-------------------------5-------|---------------------------------|
A|---------------------------------|---------------------------------|
E|---------------------------------|---------------------------------|




   A                                 G
e|---------------------------------|---------------------------------|
B|---------------------------------|---------------------------------|
G|-6-----------------------7---6---|-4-----------------------4-------|
D|---------------------------------|---------------------------------|
A|---------------------------------|---------------------------------|
E|---------------------------------|---------------------------------|




   B
e|---------------------------------|---------------------------------|
B|---------------------------------|---------------------------------|
G|/4-------------------------------|---------------------------------|
D|---------------------------------|---------------------------------|
A|---------------------------------|---------------------------------|
E|---------------------------------|---------------------------------|





    LET'S GO


e|---------------------------------|---------------------------------|
B|---------------------------------|---------------------------------|
G|---------------------------------|---------------------------------|
D|---------------------------------|---------------------------------|
A|---------------------------------|---------------------------------|
E|---------------------------------|---------------------------------|





e|---------------------------------|---------------------------------|
B|---------------------------------|---------------------------------|
G|---------------------------------|---------------------------------|
D|---------------------------------|---------------------------------|
A|---------------------------------|-------------------------0---2---|
E|---------------------------------|---------------------3-----------|




   C
e|---------------------------------|---------------------------------|
B|---------------------------------|---------------------------------|
G|---------------------------------|---------------------------------|
D|---------2-------3-------2-------|---------------------------------|
A|-3-------------------------------|-3---2---0---3-------0---2---4---|
E|---------------------------------|---------------------------------|




   D
e|---------------------------------|---------------------------------|
B|---------------------------------|---------------------------------|
G|---------------------------------|---------------------------------|
D|-0-------4-------5-------4-------|-0-----------0---------------1---|
A|---------------------------------|-----4---2-----------2---4-------|
E|---------------------------------|---------------------------------|




   E
e|---------------------------------|---------------------------------|
B|---------------------------------|---------------------------------|
G|---------1-------2-------1-------|---------------------------------|
D|-2-------------------------------|-2---1-------2-------1---2-\-----|
A|---------------------------------|---------4-----------------------|
E|---------------------------------|---------------------------------|





    PIPELINE


   N.C. (Em)
e|---------------------------------|---------------------------------|
B|---------------------------------|---------------------------------|
G|---------------------------------|---------------------------------|
D|---------------------------------|---------------------------------|
A|-----2-------2-------2-------2---|-----2-------2-------2-------2---|
E|-0-------3-------0-------3-------|-0-------3-------0-------3-------|
  P.M................................................................




e|---------------------------------|---------------------------------|
B|---------------------------------|---------------------------------|
G|---------------------------------|---------------------------------|
D|---------------------------------|---------------------------------|
A|-----2-------2-------2-------2---|-----2-------2-------2-------0---|
E|-0-------3-------0-------3-------|-0-------3-------0-------3-------|
  ..............................................................




e|---------------------------------|---------------------------------|
B|---------------------------------|---------------------------------|
G|---------------------------------|---------------------------------|
D|---------0-------2-------0---2---|-4---2---0---2-------4-------2---|
A|-2-------------------------------|---------------------------------|
E|---------------------------------|---------------------------------|





e|---------------------------------|---------------------------------|
B|---------------------------------|---------------------12----------|
G|---------------------------------|-------------12----------14--12--|
D|-4-------2-------0---2---0-------|---------14----------------------|
A|-----------------------------2---|-----12--------------------------|
E|---------------------------------|---------------------------------|




   (Am)
e|---------------------------------|---------------------------------|
B|---------------------------------|---------------------------------|
G|---------0-------2-------0---2---|-4---2---0---2-------4-------2---|
D|-2-------------------------------|---------------------------------|
A|---------------------------------|---------------------------------|
E|---------------------------------|---------------------------------|





e|---------------------------------|---------------------12--10------|
B|---------------------------------|-------------13--------------13--|
G|-4-------2-------0---2---0-------|---------14----------------------|
D|-----------------------------2---|-----14--------------------------|
A|---------------------------------|---------------------------------|
E|---------------------------------|---------------------------------|




   (B)                               (C)
e|---------------------------------|---------------------------------|
B|---------------------------------|---------------------------------|
G|-4-------4---4-------4---4---4---|-5-------5---5-------5---5---5---|
D|-4-------4---4-------4---4---4---|-5-------5---5-------5---5---5---|
A|-2-------2---2-------2---2---2---|-3-------3---3-------3---3---3---|
E|---------------------------------|---------------------------------|




   (B)                               (C)
e|---------------------------------|---------------------------------|
B|---------------------------------|---------------------------------|
G|-4-------4---4-------4---4---4---|-5-------5---5-------5---5---5---|
D|-4-------4---4-------4---4---4---|-5-------5---5-------5---5---5---|
A|-2-------2---2-------2---2---2---|-3-------3---3-------3---3---3---|
E|---------------------------------|---------------------------------|




   (B)
e|---------------------------------|---------------------------------|
B|---------------------------------|---------------------------------|
G|-4-------4---4-------4---4---4---|-4-------4---4-------4---4---4---|
D|-4-------4---4-------4---4---4---|-4-------4---4-------4---4---4---|
A|-2-------0---2-------0---2---0---|-2-------0---2-------0---2---0---|
E|---------------------------------|---------------------------------|




   (A)
e|---------------------------------|---------------------------------|
B|---------------------------------|---------------------------------|
G|-2-------2---2-------2---2-------|---------------------------------|
D|-2-------2---2-------2---2-------|---------------------------------|
A|-0-------0---0-------0---0-------|---------------------------------|
E|---------------------------------|-20191817161514131211109-8-7-6-5\|
                                    P.M..............................



       G
e|---------------------------------|
B|---------------------------------|
G|---------------------------------|
D|---------------------------------|
A|-----5---5---5---5-------1---2---|
E|-----3---3---3---3---3-----------|





    WIPE OUT


   C
e|---------------------------------|---------------------------------|
B|---------------------------------|---------------------------------|
G|---------------------------------|---------------------------------|
D|---------------------------------|---------------------------------|
A|-3---3---3---1-----------1---2---|-3---3---3---1-----------1---2---|
E|-----------------3---3-----------|-----------------3---3-----------|





e|---------------------------------|---------------------------------|
B|---------------------------------|---------------------------------|
G|---------------------------------|---------------------------------|
D|---------------------------------|-------------------------1---2---|
A|-3---3---3---1-----------1---2---|-3---3---3---1-------3-----------|
E|-----------------3---3-----------|-----------------3---------------|




   F
e|---------------------------------|---------------------------------|
B|---------------------------------|---------------------------------|
G|---------------------------------|---------------------------------|
D|-3---3---3---1-----------1---2---|-3---3---3---1-------------------|
A|-----------------3---3-----------|-----------------3-------1---2---|
E|---------------------------------|---------------------3-----------|




   C
e|---------------------------------|---------------------------------|
B|---------------------------------|---------------------------------|
G|---------------------------------|---------------------------------|
D|---------------------------------|-------------------------3---4---|
A|-3---3---3---1-----------1---2---|-3---3---3---1-------5-----------|
E|-----------------3---3-----------|-----------------3---------------|




   G                                 F
e|---------------------------------|---------------------------------|
B|---------------------------------|---------------------------------|
G|---------------------------------|---------------------------------|
D|-5---5---5---3-----------3---5---|-3---3---3---1-------------------|
A|-----------------5---5-----------|-----------------3-------1---2---|
E|---------------------------------|---------------------3-----------|




   C                                 G
e|---------------------------------|---------------------------------|
B|---------------------------------|---------------------------------|
G|---------------------------------|---------------------------------|
D|---------------------------------|-------------0-------------------|
A|-3---3---3---1-----------1---2---|-2-----------2-------------------|
E|-----------------3---3-----------|-3-----------3-------------------|





    PRETTY WOMAN


   E7
e|---------------------------------|---------------------------------|
B|---------------------------------|---------------------------------|
G|---------------------------------|---------------------------------|
D|---------------------------------|---------------------------------|
A|-------------2---5---------------|---------------------------------|
E|-0---0---4-----------------------|---------------------------------|





e|---------------------------------|---------------------------------|
B|---------------------------------|---------------------------------|
G|---------------------------------|---------------------------------|
D|---------------------------------|---------------------------------|
A|-------------2---5---------------|---------------------------------|
E|-0---0---4-----------------------|---------------------------------|





e|---------------------------------|---------------------------------|
B|---------------------------------|---------------------------------|
G|---------------------------------|---------------------------------|
D|---------------------4---2-------|---------------------4---2-------|
A|-------------2---5-----------5---|-------------2---5-----------5---|
E|-0---0---4-----------------------|-0---0---4-----------------------|





e|---------------------------------|---------------------------------|
B|---------------------------------|-------------------------0-------|
G|---------------------------------|---------------------------------|
D|---------------------4---2-------|---------------------------------|
A|-------------2---5-----------5---|---------------------------------|
E|-0---0---4-----------------------|---------------------------------|





    PERFIDIA


   C               Am                Dm              G
e|---------------------------------|---------------------------------|
B|-1-------------------------------|-------------0---1---3---1---0---|
G|---------------------------------|---------------------------------|
D|---------------------------------|---------------------------------|
A|---------------------------------|---------------------------------|
E|---------------------------------|---------------------------------|





   C               Am                Dm              G
e|---------------------------------|---------------------------------|
B|-----1-------0-------------------|-------------0---1---3---1---0---|
G|-----------------2---------------|---------------------------------|
D|---------------------------------|---------------------------------|
A|---------------------------------|---------------------------------|
E|---------------------------------|---------------------------------|





   C               Am                F               G
e|---------------------------------|---------------------------------|
B|-1---0-----------1---------------|---------------------------------|
G|-------------2---------------2---|-0-----------0---2---------------|
D|---------------------------------|-----3---------------------------|
A|---------------------------------|-------------------------2-------|
E|---------------------------------|---------------------------------|




   C               F                 C               G
e|-0---------------1---------------|-0---------------3---------------|
B|-1---------------1---------------|-1---------------3---------------|
G|-0---------------2---------------|-0---------------4---------------|
D|-2---------------3---------------|-2---------------5---------------|
A|---------------------------------|---------------------------------|
E|---------------------------------|---------------------------------|






    SECRET AGENT MAN


   Em
e|---------------------------------|---------------------------------|
B|---------------------------------|---------------------------------|
G|-4-----------5-----------5-------|-6-----------5-----------5-------|
D|---------------------------------|---------------------------------|
A|---------------------------------|---------------------------------|
E|---------------------------------|---------------------------------|





e|---------------------------------|---------------------------------|
B|---------------------------------|---------------------------------|
G|-4-----------5-----------5-------|-6-----------5-----------5-------|
D|---------------------------------|---------------------------------|
A|---------------------------------|---------------------------------|
E|---------------------------------|---------------------------------|




   Em                                Am
e|---------------------------------|---------------------------------|
B|---------------------------------|---------------------------------|
G|-------------------------4-------|---------------------------------|
D|-----------------5---------------|-7-------7---5---7---7-5---------|
A|-7-------7---7-------------------|-------------------------7---5---|
E|---------------------------------|---------------------------------|




   Em
e|---------------------5b6r5-------|---------------------------------|
B|-----------------------------8---|---------------------------------|
G|---------------------------------|-9-------------------------------|
D|-5-------------------------------|---------------------------------|
A|---------7-----------------------|-----------------------------5--/|
E|---------------------------------|---------------------------------|





e|---------------------------------|---------------------------------|
B|---------------------------------|---------------------------------|
G|---------------------------------|-----------------7-------7-------|
D|-----------------5-------5---7--/|-9-------9---9-------9-------9---|
A|-7-------7---7-------7-----------|---------------------------------|
E|---------------------------------|---------------------------------|




   B7
e|---------------------------------|---------------------------------|
B|---------------------------------|---------------------------------|
G|/8------------------9b10r9---7---|-------------------------7-------|
D|---------9-----------------------|-9-------------------9-------9---|
A|---------------------------------|---------------------------------|
E|---------------------------------|---------------------------------|




   Em
e|---------------------------------|---------------------------------|
B|---------------------------------|---------------------------------|
G|/9-------9-------9---7-----------|---------------------------------|
D|-------------------------9p7-----|-9-----------------------7p5-----|
A|---------------------------------|---------------------------------|
E|---------------------------------|---------------------------------|




   Am
e|---------------------------------|---------------------------------|
B|---------------------------------|---------------------------------|
G|---------------------------------|---------7-----------------------|
D|---------7---5---7---7-5-----5---|-7-b-9------9r7------7---5-------|
A|-------------------------7-------|-----------------------------5---|
E|---------------------------------|---------------------------------|




   Em                                Am
e|---------------------------------|---------------------------------|
B|---------------------------------|---------------------------------|
G|-------------------------4-------|---------------------------------|
D|-----------------5---------------|(7)------7---5---7---7-5---------|
A|-7-------7---5-------------------|-------------------------7---5---|
E|---------------------------------|---------------------------------|




   Em
e|---------------------------------|---------------------------------|
B|---------------------------------|---------------------5-----------|
G|---------------------------------|-----------------5-----------7---|
D|-5-------------------------------|---------7---7-------------------|
A|---------7-----------------------|---------------------------------|
E|---------------------------------|---------------------------------|






    HAWAII FIVE-O


   D5                                C5
e|---------------------------------|---------------------------------|
B|---------------------------------|---------------------------------|
G|---------------------------------|---------------------5-----------|
D|-------------7-------------------|---------7---7---5-----------7---|
A|---------------------------------|---------------------------------|
E|---------------------------------|---------------------------------|




   D7                                F5
e|---------------------------------|---------------------------------|
B|---------------------------------|---------------------5-----------|
G|---------------------------------|-----------------5-----------7---|
D|---------------------------------|---------7---7-------------------|
A|---------------------------------|---------------------------------|
E|---------------------------------|---------------------------------|




   D5                                C5
e|-------------5-------------------|---------3---3---------------5---|
B|---------------------------------|-----------------5---------------|
G|---------------------------------|---------------------5-----------|
D|---------------------------------|---------------------------------|
A|---------------------------------|---------------------------------|
E|---------------------------------|---------------------------------|




   F5                                A5
e|---------------------------------|---------------------------------|
B|---------------------------------|---------------------------------|
G|---------------------------------|---------------------------------|
D|---------------------------------|---------------------------------|
A|---------------------------------|---------------------------------|
E|---------------------------------|---------------------------------|




   D5
e|---------5-----------------------|---------------------------------|
B|---------------------8---6---5---|-----5---------------------------|
G|---------------------------------|-7---------------7---------------|
D|---------------------------------|-------------7-------------------|
A|---------------------------------|---------------------------------|
E|---------------------------------|---------------------------------|




   Bb5                                               C5
e|---------10----------8-----------|---------------------------------|
B|-------------------------11--9---|-8-------------------------------|
G|---------------------------------|-----10--7---9-------7-----------|
D|---------------------------------|-------------------------10------|
A|---------------------------------|---------------------------------|
E|---------------------------------|---------------------------------|




   D5                                C5
e|---------------------------------|-------------------------8---10--|
B|-----------/-10------------------|---------8---8-------8-----------|
G|-7-------------------------------|-----------------9---------------|
D|---------------------------------|---------------------------------|
A|---------------------------------|---------------------------------|
E|---------------------------------|---------------------------------|




   D5
e|---------------------------------|---------------------------------|
B|---------------------------------|---------------------------------|
G|---------------------------------|---------------------------------|
D|---------------------------------|---------------------9-----------|
A|---------------------------------|-----------------8-----------12--|
E|---------------------------------|---------10--10------------------|




   A5
e|---------------------------------|---------------------------------|
B|---------------------------------|---------------------------------|
G|---------------------------------|-----------------10---14-----12--|
D|-----------------10--14------12--|---------12--12------------------|
A|---------12--12------------------|---------------------------------|
E|---------------------------------|---------------------------------|





e|---------------------------------|
B|---------------------------------|
G|---------------------------------|
D|---------------------------------|
A|---------------------------------|
E|---------------------------------|






    WALK DON'T RUN


   A               G                 F           E
e|---------------------------------|---------------------------------|
B|---------------------------------|-------------1-----------0-------|
G|-2-------------------------------|-----0---2-----------------------|
D|---------------------0---2---3---|---------------------------------|
A|-----0---2---3-------------------|---------------------------------|
E|---------------------------------|---------------------------------|




   A               G                 F               G
e|---------------------------------|---------------------------------|
B|---------------------------------|-----0---1-------0---------------|
G|-2-------------------------------|-----0---2-------0-------2-------|
D|---------------------0---2---3---|-------------------------3-------|
A|-----0---2---3-------------------|---------------------------------|
E|---------------------------------|---------------------------------|




   C                                 G
e|---------------------------------|---------------------------------|
B|-------------1-------------------|---------------------------------|
G|-------------0-------------------|---------------------------------|
D|-2-\-1---2---2-------------------|-----0---2---3---2-------0-------|
A|---------------------------------|---------------------------------|
E|---------------------------------|---------------------------------|




   C               F                 C
e|-0-------0-------1-------1-------|---------8-w---------------------|
B|-1-------1-------1-------1-------|---------8-w---------------------|
G|-0-------0-------2-------2-------|---------9-w---------------------|
D|-2-------2-------3-------3-------|--------10-w---------------------|
A|---------------------------------|---------------------------------|
E|---------------------------------|---------------------------------|
comments
We did not receive enough feedback on this tab! Please rate:
print report bad tab
1 2 3 4 5
I want to post or [tab]
guest
You may want to rate the tab now too:
select rating
Please do not post tabs as comments. Select "correction" instead!