Oops, an error
Loading. Please wait.

Sukiyaki Tab

ver2
ver2

Whole song

Interactive

More versions @911Tabs.com
3,673 views 12 this week
no commentswrite comment
1 2 3 4 5
excellent!
x 1
add to favorites launch autoscroll
font size
0
reset
Autoscroll
+/-
esc
set tempo
stop
Contributor
WARNING: You are trying to view
                                    content from Ultimate-Guitar.com
                                    in an unauthorized application,
                                    which is prohibited.

                                    Please use an official Ultimate
                                    Guitar Tabs application for iPhone,
                                    iPad or Android to access legitimate
                                    chords, guitar, bass, and drum tabs
                                    from Ultimate-Guitar.com database.

                                    Type "ultimate guitar tabs" in Apple
                                    App Store's or Android Market's
                                    search to find the application.
SUKIYAKI


The Ventures


  INTRO




e|---------------------------------|---------------------------------|
B|---------------------------------|---------------------------------|
G|---------------------------------|---------------------------------|
D|---------------------------------|-----------------14------16------|
A|---------------------------------|---------------------------------|
E|---------------------------------|---------------------------------|




   A                                 F#m
e|---------------------------------|---------------------------------|
B|---------------------------------|-14----------------------14------|
G|-14------14--------------16------|---------14------14--------------|
D|---------------------------------|---------------------------------|
A|---------------------------------|---------------------------------|
E|---------------------------------|---------------------------------|




   C#m                               E7
e|---------------------------------|---------------------------------|
B|-17------------------------------|---------------------------------|
G|---------------------------------|---------------------------------|
D|---------------------------------|---------------------------------|
A|---------------------------------|---------------------------------|
E|---------------------------------|---------------------------------|





  VERSE


   A                                 F#m
e|---------------------------------|---------------------------------|
B|---------------------------------|---------------------------------|
G|---------------------------------|---------------------------------|
D|---------------------------------|-2-------------------------------|
A|-4-------4---------------5-------|-4-------4-------0-------0-------|
E|-5-------5---------------7-------|---------5-------2-------0-------|




   A                                 F#m
e|---------------------------------|---------------------------------|
B|---------------------------------|---------------------------------|
G|---------------------------------|---------------------------------|
D|---------------------------------|-2-------------------------------|
A|---------4---4---4-------5-------|-4-------4-------0---------------|
E|---------5---5---5-------7-------|---------5-------2---------------|




   A                                 C#m
e|---------------------------------|---------------------------------|
B|---------------------------------|---------------------------------|
G|---------------------------------|-------------------------1-------|
D|---------------------------------|-2---------------2-------2-------|
A|---------4---4---4-------5-------4-----------------4---------------|
E|---------5---5---5-------7-------|---------------------------------|




   F#m                               Bm7             E7
e|---------------------------------|---------------------------------|
B|---------------------------------|---------------------------------|
G|-2---------------2-----------1---|-2-------1-----------------------|
D|-4---------------4-----------2---|-4-------2-------2---------------|
A|---------------------------------|-----------------4-------5-------|
E|---------------------------------|-------------------------7-------|




   A                                 Bm
e|---------------------------------|---------------------------------|
B|---------------------------------|---------------------------------|
G|---------------------------------|---------------------------------|
D|---------------------------------|---------------------------------|
A|---------4---4---4-------0-------|-5-------------------------------|
E|---------5---5---5-------2-------|-7-------------------------------|




   D6                                C#7
e|---------------------------------|---------------------------------|
B|---------------------------------|---------------------------------|
G|---------------------------------|---------------------------------|
D|---------------------------------|-3-------------------------------|
A|-5---------------5-------4-------|-4-----------------------5-------|
E|-7---------------7-------5-------|-------------------------7-------|




   F#m                               C#m             Bm7
e|---------------------------------|---------------------------------|
B|---------------------------------|---------------------------------|
G|-------------------------2-------|-1-------------------------------|
D|-------------------------4-------|-2-------2-----------------------|
A|-4-------4-----------------------|---------4-------4-------0-------|
E|-5-------5-----------------------|-----------------5-------2-------|




   A6              D6                C#m7            Bm7
e|---------5---------------7---7---|---------4---------------2-------|
B|---------7---------------7---7---|---------5---------------3-------|
G|---------6---------------7---7---|---------6---------------4-------|
D|---------------------------------|---------------------------------|
A|-4-------------------------------|---------------------------------|
E|-5-------------------------------|---------------------------------|





  VERSE


   A                                 F#m
e|---------------------------------|---------------------------------|
B|---------------------------------|-5-------------------------------|
G|-6-------6---------------7-------|-6-------6-------2-------2-------|
D|-7-------7---------------9-------|---------7-------4-------2-------|
A|---------------------------------|---------------------------------|
E|---------------------------------|---------------------------------|




   A                                 F#m
e|---------------------------------|---------------------------------|
B|---------------------------------|-5-------------------------------|
G|---------6-------6-------7-------|-6-------6-------2---------------|
D|---------7-------7-------9-------|---------7-------4---------------|
A|---------------------------------|---------------------------------|
E|---------------------------------|---------------------------------|




   A                                 C#m
e|---------------------------------|-------------------------4-------|
B|---------------------------------|-5---------------5-------5-------|
G|---------6-------6-------7-------6-----------------6---------------|
D|---------7-------7-------9-------|---------------------------------|
A|---------------------------------|---------------------------------|
E|---------------------------------|---------------------------------|




   F#m                               Bm7             E7
e|-5---------------------------4---|-5-------4-----------------------|
B|-7---------------7-----------5---|-7-------5-------5---------------|
G|---------------------------------|-----------------6-------7-------|
D|---------------------------------|-------------------------9-------|
A|---------------------------------|---------------------------------|
E|---------------------------------|---------------------------------|




   A                                 Bm
e|---------------------------------|---------------------------------|
B|---------------------------------|-3-------------------------------|
G|---------6-------6-------2-------|-4-------------------------------|
D|---------7-------7-------4-------|---------------------------------|
A|---------------------------------|---------------------------------|
E|---------------------------------|---------------------------------|




   D6                                C#7
e|---------------------------------|---------------------------------|
B|-3---------------3---------------|-6-------------------------------|
G|-4---------------4-------6-------|-6-----------------------4-------|
D|-------------------------7-------|---------------------------------|
A|---------------------------------|---------------------------------|
E|---------------------------------|---------------------------------|




   F#m                               C#m             Bm7
e|-------------------------5-------|-4-------------------------------|
B|-------------------------7-------|-5-------5-----------------------|
G|-6-------6-----------------------|---------6-------6-------2-------|
D|-7-------7-----------------------|-----------------7-------4-------|
A|---------------------------------|---------------------------------|
E|---------------------------------|---------------------------------|




   A
e|---------------------------------|---------------------------------|
B|---------------------------------|---------------------------------|
G|-6-------------------------------|-------------------------6-------|
D|-7-------7-----------------------|---------7-------9---------------|
A|---------------------------------|---------------------------------|
E|---------------------------------|---------------------------------|





  BRIDGE


   D
e|---------------------------------|---------------------------------|
B|---------------------------------|-7-----------------------7-------|
G|-7---------------7-------9-------|-----------------7---------------|
D|---------------------------------|---------------------------------|
A|---------------------------------|---------------------------------|
E|---------------------------------|---------------------------------|




   A                                 A7
e|---------------------------------|---------------------------------|
B|-5---------------5---------------|-5-------------------------------|
G|-------------------------6-------|-6-------------------------------|
D|---------------------------------|-5-------------------------------|
A|---------------------------------|-7-------------------------------|
E|---------------------------------|---------------------------------|




   Dm
e|---------------------------------|---------------------------------|
B|-------------------------5-------|-6-----------------------6-------|
G|---------7-------7---------------|-----------------7---------------|
D|---------------------------------|---------------------------------|
A|---------------------------------|---------------------------------|
E|---------------------------------|---------------------------------|




   A                                 E7
e|---------------------------------|-0-------------------------------|
B|-5-------------------------------|-0-------------------------------|
G|-----------------6---------------|-1-------------------------------|
D|-------------------------7-------|-0-------------------------------|
A|---------------------------------|---------------------------------|
E|---------------------------------|---------------------------------|





  VERSE


   A                                 F#m
e|---------------------------------|-12------------------------------|
B|---------14--14--14------15--15--|-14------14----------------------|
G|---------14--14--14------16--16--|---------14------14------14------|
D|---------------------------------|-----------------16------14------|
A|---------------------------------|---------------------------------|
E|---------------------------------|---------------------------------|




   A                                 F#m
e|---------------------------------|-12------------------------------|
B|---------14------14------15--15--|-14------14----------------------|
G|---------14------14------16--16--|---------14------14--------------|
D|---------------------------------|-----------------16--------------|
A|---------------------------------|---------------------------------|
E|---------------------------------|---------------------------------|




   A                                 C#m
e|---------------------------------|-------------------------12------|
B|-------------------------------14|-----------------14--------------|
G|---------14------14------16------|---------------------------------|
D|---------------------------------|---------------------------------|
A|---------------------------------|---------------------------------|
E|---------------------------------|---------------------------------|




   F#m                               Bm7             E7
e|-14--------------14----------12--|-14------12----------------------|
B|---------------------------------|-----------------14------12------|
G|---------------------------------|---------------------------------|
D|---------------------------------|---------------------------------|
A|---------------------------------|---------------------------------|
E|---------------------------------|---------------------------------|




   A                                 Bm
e|---------------------------------|---------------------------------|
B|---------------------------------|---------------------------------|
G|---------14------14--------------|-16------------------------------|
D|-------------------------16------|---------------------------------|
A|---------------------------------|---------------------------------|
E|---------------------------------|---------------------------------|




   D6                                C#7
e|---------------------------------|---------------------------------|
B|---------------------------------|-14------------------------------|
G|-16--------------16------14------|-------------------------16------|
D|---------------------------------|---------------------------------|
A|---------------------------------|---------------------------------|
E|---------------------------------|---------------------------------|




   F#m                               C#m             Bm7
e|-------------------------14------|-12------------------------------|
B|---------------------------------|---------14----------------------|
G|-14------14----------------------|-----------------14--------------|
D|---------------------------------|-------------------------16------|
A|---------------------------------|---------------------------------|
E|---------------------------------|---------------------------------|




   A6              D6                C#m7            Bm7
e|---------5---------------7---7---|---------4---------------2---2---|
B|---------7---------------7---7---|---------5---------------3---3---|
G|-14------6---------------7---7---|---------6---------------4---4---|
D|---------------------------------|---------------------------------|
A|---------------------------------|---------------------------------|
E|---------------------------------|---------------------------------|





  OUTRO


   A                                 C#m             Bm7
e|-------------------------14------|-12------------------------------|
B|---------------------------------|---------14----------------------|
G|-14------14----------------------|-----------------14--------------|
D|---------------------------------|-------------------------16------|
A|---------------------------------|---------------------------------|
E|---------------------------------|---------------------------------|




   A6              D6                C#m7            Bm7
e|---------5---------------7---7---|---------4---------------2-------|
B|---------7---------------7---7---|---------5---------------3-------|
G|-14------6---------------7---7---|---------6---------------4-------|
D|---------------------------------|---------------------------------|
A|---------------------------------|---------------------------------|
E|---------------------------------|---------------------------------|




   A                                 C#m             Bm7
e|-------------------------14------|-12------------------------------|
B|---------------------------------|---------14----------------------|
G|-14------14----------------------|-----------------14--------------|
D|---------------------------------|-------------------------16------|
A|---------------------------------|---------------------------------|
E|---------------------------------|---------------------------------|




   A6              D6                C#m7            Bm7
e|---------5---------------7---7---|---------4---------------2-------|
B|---------7---------------7---7---|---------5---------------3-------|
G|-14------6---------------7---7---|---------6---------------4-------|
D|---------------------------------|---------------------------------|
A|---------------------------------|---------------------------------|
E|---------------------------------|---------------------------------| ....
comments
We did not receive enough feedback on this tab! Please rate:
print report bad tab
1 2 3 4 5
I want to post or [tab]
guest
You may want to rate the tab now too:
select rating
Please do not post tabs as comments. Select "correction" instead!