Oops, an error
Loading. Please wait.

The Letter Tab

ver1
ver1

Whole song

More versions @911Tabs.com
1,063 views 3 this week
no commentswrite comment
1 2 3 4 5
please rate
add to favorites launch autoscroll
font size
0
reset
Autoscroll
+/-
esc
set tempo
stop
Contributor
WARNING: You are trying to view
                                    content from Ultimate-Guitar.com
                                    in an unauthorized application,
                                    which is prohibited.

                                    Please use an official Ultimate
                                    Guitar Tabs application for iPhone,
                                    iPad or Android to access legitimate
                                    chords, guitar, bass, and drum tabs
                                    from Ultimate-Guitar.com database.

                                    Type "ultimate guitar tabs" in Apple
                                    App Store's or Android Market's
                                    search to find the application.
  ----------------------------------------------------------------

   THE VENTURES - THE LETTER (Wayne Carson Thompson) From HAWAII
                  FIVE-O album. Released on 1969.

  ----------------------------------------------------------------








     INTRO


     X       X       X       X         X       X       X       x
  e|---------------------------------|---------------------------------|
  B|---------------------------------|---------------------------------|
  G|---------------------------------|---------------------------------|
  D|---------------------------------|-----------------2---0-----------|
  A|---------------------------------|-------------2-----------4---2---|
  E|---------------------------------|-----0---------------------------|





     VERSE
     00:03

     Am                                F
  e|---------------------------------|---------------------------------|
  B|---------------------------------|---------------------------------|
  G|---------------------------------|---------------------------------|
  D|---------------------------------|---------------------------------|
  A|-0---0-------0-------0---0---0---|-3---0-------0-------------------|
  E|---------------------------------|---------------------------------|




     G                                 D
  e|---------------------------------|---------------------------------|
  B|---------------------------------|---------------------------------|
  G|---------------------------------|---------------------------------|
  D|---------------------------------|---------------------------------|
  A|-3---3-------3-------3---3-------|-3---0-------0-------------------|
  E|---------------------------------|---------------------------------|




     Am                                F
  e|---------------------------------|---------------------------------|
  B|---------------------------------|---------------------------------|
  G|---------------------------------|---------------------------------|
  D|---------------------------------|---------------------------------|
  A|-----7---7-------5---3-----------|-5B7-7---7---7---5---3-----------|
  E|---------------------------------|-----------------------------0---|




     E                                 Am
  e|---------------------------------|---------------------------------|
  B|---------------------------------|---------------------------------|
  G|---------------------------------|---------------------------------|
  D|---------------------------------|---------------------------------|
  A|-----------------------------2B3-|-----0---0-----------------------|
  E|-4---4---4---4-------4---4-------|---------------------------------|





     VERSE
     00:17

     Am                                F
  e|---------------------------------|---------------------------------|
  B|---------------------------------|---------------------------------|
  G|---------------------------------|-5-------------------------------|
  D|-7---7-------7-------7---7---7---|-----7-------7-------------------|
  A|---------------------------------|---------------------------------|
  E|---------------------------------|---------------------------------|




     G                                 D
  e|---------------------------------|---------------------------------|
  B|---------------------------------|---------------------------------|
  G|-5---5-------5-------5-----5-5---|-5-------------------------------|
  D|---------------------------------|-----7-------7--------------(7)--|
  A|---------------------------------|---------------------------------|
  E|---------------------------------|---------------------------------|




     Am                                F
  e|---------------------------------|---------------------------------|
  B|---------------------------------|---------------------------------|
  G|-9---9---9-------7---5-----------|-7B9-9---9-------7---5-----------|
  D|---------------------------------|---------------------------------|
  A|---------------------------------|---------------------------------|
  E|---------------------------------|---------------------------------|




     E                                 Am
  e|---------------------------------|---------------------------------|
  B|---------------------------------|---------------------------------|
  G|-----------------------------4B5-|---------------------------------|
  D|-6---6-------6-------6---6-------|-----7---------------------------|
  A|---------------------------------|---------------------------------|
  E|---------------------------------|---------------------------------|





  e|---------------------------------|
  B|-------------------------5---6---|
  G|-------------------------5---7---|
  D|---------------------------------|
  A|---------------------------------|
  E|---------------------------------|





     BRIDGE
     00:33

     C               G                 F               C
  e|---------------------------------|-5-------5---5-------------------|
  B|-8-------8-------8-------8-------|-6-------6---6---8---8-----------|
  G|-9-------9-------7-------7-------|-----------------9---9-----------|
  D|---------------------------------|---------------------------------|
  A|---------------------------------|---------------------------------|
  E|---------------------------------|---------------------------------|




     G
  e|---------------------------------|---------------------------------|
  B|-8-------------------------------|---------8---8---8---------------|
  G|-9-------7---7-------------------|-7---7---------------------------|
  D|---------------------------------|---------------------------------|
  A|---------------------------------|---------------------------------|
  E|---------------------------------|---------------------------------|




     C               G                 F               C
  e|---------------------------------|-5-------5-----------------------|
  B|-8-------8-------8-------8-------|-6-------6---8-------8-----------|
  G|-9-------9-------7-------7-------|-------------9-------9-----------|
  D|---------------------------------|---------------------------------|
  A|---------------------------------|---------------------------------|
  E|---------------------------------|---------------------------------|




     G                                 E
  e|---------------------------------|---------------------------------|
  B|-8-------------------------------|---------------------------------|
  G|-9-------7-------7---------------|---------9---9---7-B-9-----------|
  D|---------------------------------|---------------------------------|
  A|---------------------------------|---------------------------------|
  E|---------------------------------|---------------------------------|





     VERSE
     00:47 ....




  e|---------------------------------|---------------------------------|
  B|---------------------------------|-------------------------5---6---|
  G|---------------------------------|-------------------------5---7---|
  D|---------------------------------|---------------------------------|
  A|---------------------------------|---------------------------------|
  E|---------------------------------|---------------------------------|





     BRIDGE
     01:03

     C               G                 F               C
  e|-12------12------10------10------|-13------13------12------12------|
  B|-13------13------12------12------|-15------15------13------13------|
  G|---------------------------------|---------------------------------|
  D|---------------------------------|---------------------------------|
  A|---------------------------------|---------------------------------|
  E|---------------------------------|---------------------------------|




     G
  e|/12------10------10--------------|---------10----------12----------|
  B|/13------12------12--------------|-12----------13------------------|
  G|---------------------------------|---------------------------------|
  D|---------------------------------|---------------------------------|
  A|---------------------------------|---------------------------------|
  E|---------------------------------|---------------------------------|




     C               G                 F               C
  e|-12------12------10------10------|-13--13--13------12------12------|
  B|-13------13------12------12------|-15--15--15------13------13------|
  G|---------------------------------|---------------------------------|
  D|---------------------------------|---------------------------------|
  A|---------------------------------|---------------------------------|
  E|---------------------------------|---------------------------------|




     G                                 E
  e|-12------10------10--------------|-----12--10------10B12---10B12---|
  B|-13------12------12--------------|---------------------------------|
  G|---------------------------------|---------------------------------|
  D|---------------------------------|---------------------------------|
  A|---------------------------------|---------------------------------|
  E|---------------------------------|---------------------------------|





     VERSE
     01:17 ....




  e|---------------------------------|---------------------------------|
  B|---------------------------------|---------------------------------|
  G|---------------------------------|---------------------------------|
  D|---------------------------------|---------------------------------|
  A|---------------------------------|-----------------------------7---|
  E|---------------------------------|---------------------------------|




     E                                 Am
  e|-----------------------------0---|---------------------------------|
  B|-5---5-------5-------------------|---------------------------------|
  G|-----------------------------4B5-|---------------------------------|
  D|-6---6-------6-------6-----------|-----7---------------------------|
  A|---------------------------------|---------------------------------|
  E|---------------------------------|---------------------------------|





     OUTRO
     01:35

     C#              G#                F#              C#
  e|---------------------------------|---------------------------------|
  B|---------------------------------|---------------------------------|
  G|---------------------------------|---------------------------------|
  D|---------------------------------|---------------------------------|
  A|---------------------------------|---------------------------------|
  E|---------------------------------|---------------------------------|




     G#
  e|---------------------------------|----------------------------7B8--|
  B|---------------------------------|-------------------------9-------|
  G|---------------------------------|---------------------------------|
  D|---------------------------------|---------------------------------|
  A|---------------------------------|---------------------------------|
  E|---------------------------------|---------------------------------|




     C#              G#                F#              C#
  e|-9-------9-------8-------8-------|------9--------------------------|
  B|-------------9-------9-------9---|-9B11----11--9-------------------|
  G|---------------------------------|-----------------------------10--|
  D|---------------------------------|---------------------------------|
  A|---------------------------------|---------------------------------|
  E|---------------------------------|---------------------------------|




     G#
  e|---------------------7-------7B8-|---------------------------------|
  B|-8B9-----9-----7-9-------9-------|-9-----7-9-----------------------|
  G|---------------------------------|-------------------------6-8-6---|
  D|---------------------------------|---------------------6-----------|
  A|---------------------------------|---------------------------------|
  E|---------------------------------|---------------------------------|




     C#              G#                F#              C#
  e|---------------------------------|---------2---4---4B6-4---4-------|
  B|-5B6-----4-------5---4-------4---|-----2---------------------------|
  G|-------------6-------------------|2B3------------------------------|
  D|---------------------------------|---------------------------------|
  A|---------------------------------|---------------------------------|
  E|---------------------------------|---------------------------------|




     G#
  e|---------------------------------|-4--3B4--4-----2-4-------4-------|
  B|4B5--4-------4---------------4---|---------------------------------|
  G|---------6--------------5B6------|---------------------------------|
  D|---------------------------------|---------------------------------|
  A|---------------------------------|---------------------------------|
  E|---------------------------------|---------------------------------|




     C#              G#                F#              C#
  e|-7-B-9---9-------7B8-----8-------|---------------------------------|
  B|-----------------------------9---|9B11-9---9---9-------9-----------|
  G|---------------------------------|---------------------------------|
  D|---------------------------------|---------------------------------|
  A|---------------------------------|---------------------------------|
  E|---------------------------------|---------------------------------|




     G#
  e|---------------------------------|-----------------------------8---|
  B|-----9---------------------------|-------------------------9-------|
  G|-6B8-----8---6-/-8---6---8-----6-|-8-----6-8-----------------------|
  D|---------------------------------|---------------------------------|
  A|---------------------------------|---------------------------------|
  E|---------------------------------|---------------------------------|




     C#              G#                F#              C#
  e|-9-------9---8---6---8---6--(4--/|-6)------------------9-----------|
  B|---------------------------------|-------------9-B-11------9-------|
  G|---------------------------------|-----------------------------10--|
  D|---------------------------------|---------------------------------|
  A|---------------------------------|---------------------------------|
  E|---------------------------------|---------------------------------|




     G#
  e|-6B8-----4-----------------------|---------6-----------------------|
  B|-----------------9-----7-9-----7-|-9-----------9-------------------|
  G|---------------------------------|---------------------------------|
  D|---------------------------------|---------------------------------|
  A|---------------------------------|---------------------------------|
  E|---------------------------------|---------------------------------| ....
comments
We did not receive enough feedback on this tab! Please rate:
1 2 3 4 5
I want to post or [tab]
guest
You may want to rate the tab now too:
select rating
Please do not post tabs as comments. Select "correction" instead!