Oops, an error
Loading. Please wait.

Walk Dont Run Tab

ver8
ver8
More versions @911Tabs.com
2,662 views 6 this week
no commentswrite comment
1 2 3 4 5
please rate
Autoscroll
+/-
esc
set tempo
stop
Contributor
Difficulty
7iu
intermediate
Hey! There's an official Ultimate Guitar app which is ideal
for learning songs when you're away from computer. Get the app
WARNING: You are trying to view
                                    content from Ultimate-Guitar.com
                                    in an unauthorized application,
                                    which is prohibited.

                                    Please use an official Ultimate
                                    Guitar Tabs application for iPhone,
                                    iPad or Android to access legitimate
                                    chords, guitar, bass, and drum tabs
                                    from Ultimate-Guitar.com database.

                                    Type "ultimate guitar tabs" in Apple
                                    App Store's or Android Market's
                                    search to find the application.
-----------------------------------------------------------------------------
           MEDLEY(WALK, DON'T RUN, PERFIDIA) - The Ventures
-----------------------------------------------------------------------------
Tabbed by: Andreas B-G
Email: dasmaus@live.com

Tuning: Standard

| b = bend
| h = hammer-on
| p = pulloff
| w = whammy bar
| P.M. = palm mute



e|-----5---5---5------3---3---3------1---1---1------0------0-----------|
B|-----5---5---5------3---3---3------1---1---1------0------0-----------|
G|-----6---6---6------4---4---4------2---2---2------1------1-----------|
D|-----7---7---7------5---5---5------3---3---3------2------2-----------|
A|-----7---7---7------5---5---5------3---3---3------2------2-----------|
E|-----5---5---5------3---3---3------1---1---1------0------0-----------|


e|-----5---5---5------3---3---3------1---1---1------0------0-----------|
B|-----5---5---5------3---3---3------1---1---1------0------0-----------|
G|-----6---6---6------4---4---4------2---2---2------1------1-----------|
D|-----7---7---7------5---5---5------3---3---3------2------2-----------|
A|-----7---7---7------5---5---5------3---3---3------2------2-----------|
E|-----5---5---5------3---3---3------1---1---1------0------0-----------|


e|---------------------------------------------------------------------|
B|----------------------------------------------1w---0-----------------|
G|--------2-----------------------------0---2--------------------------|
D|---2---------------------0---2---3-----------------------------------|
A|------------0---2---3------------------------------------------------|
E|---------------------------------------------------------------------|


e|---------------------------------------------------------------------|
B|-------------------------------------1---0---------------------------|
G|---2-----------------------------0---2---0---3---0---0--0---0w-------|
D|--------------------0---2---3----------------2---2---1--2---2w-------|
A|-------0---2---3-----------------------------------------------------|
E|---------------------------------------------------------------------|


e|---------------------------------------------------------------------|
B|---------------------------------------------------------------------|
G|-------------------------------------------1-------1---1---1---1-----|
D|---0---2---3---2---0-------0h2p0-------0---2-------2---2---2---2-----|
A|-----------------------3-----------3---------------------------------|
E|---------------------------------------------------------------------|


e|---------------------------------------------------------------------|
B|--------------------------------------------------------1w---0-------|
G|---1---1---1--------2---------------------------0---2----------------|
D|---2---2---2------------------------0---2---3------------------------|
A|------------------------0---2---3------------------------------------|
E|---------------------------------------------------------------------|


e|---------------------------------------------------------------------|
B|-----------------------------------1---0-----------------------------|
G|---2---------------------------0---2---0---2---0---0---0---0---------|
D|-------------------0---2---3---------------3---2---1---2---2------0--|
A|-------0---2---3-----------------------------------------------------|
E|---------------------------------------------------------------------|


e|---------------------------------------------------------------------|
B|---------------------------------------------------------------------|
G|---------------------------------------------------------------------|
D|---2---3---2---0-------0h2p0-------0-----------------------0---2---3-|
A|-------------------3-----------3-------3-------0---2---3-------------|
E|-------------------------------------------3-------------------------|


e|---------------------------------------------------------------------|
B|----------------1---1---1---1---1---1------1---1------1w-------------|
G|---0w---0w------0---0---0---0---0---0------2---2------2w------2------|
D|------------------------------------------------------------------3--|
A|---------------------------------------------------------------------|
E|---------------------------------------------------------------------|


e|---------------------------------------------------------------------|
B|-------------------0------------0-----------1w-----------------------|
G|-------2---------------1------------1-------2w-----------------------|
D|-----------3---------------2------------2-----------0---2---0--------|
A|---3-----------3------------------------------------------------3h5p3|
E|---------------------------------------------------------------------|


e|---------------------------------------------------------------------|
B|----------------------------------------------1w---0-----------------|
G|----------2---------------------------0---2---------------2----------|
D|--------------------------0---2---3----------------------------------|
A|---2----------0---2---3---------------------------------------0---2--|
E|---------------------------------------------------------------------|


e|---------------------------------------------------------------------|
B|-----------------------1---0-----------------------------------------|
G|-------------------0---2---0---3------0---0---0---0------------------|
D|-------0---2---3---------------2------2---0---2---2------0---2---3---|
A|---3-----------------------------------------------------------------|
E|---------------------------------------------------------------------|


e|--------------------------------------|
B|--------------1------3---3------1-----|
G|--------------0------4---4------0-----|
D|---2---0------2------5---5------2-----|
A|--------------------------------------|
E|--------------------------------------|



*DRUM SOLO*

e|---8----8----8-------7----7---7------5---5---5------3---3/-----------|
B|---8----8----8-------8----8---8------6---6---6------3---3/-----------|
G|---9----9----9-------9----9---9------7---7---7------4---4/-----------|
D|---10---10---10------9----9---8------7---7---7------5---5/-----------|
A|---10---10---10------7----7---7------5---5---5------5---5/-----------|
E|---8----8----8-------7----7---7------5---5---5------3---5/-----------|


e|---8----8----8-------7----7---7------5---5---5------3---3------------|
B|---8----8----8-------8----8---8------6---6---6------3---3------------|
G|---9----9----9-------9----9---9------7---7---7------4---4------------|
D|---10---10---10------9----9---8------7---7---7------5---5------------|
A|---10---10---10------7----7---7------5---5---5------5---5------------|
E|---8----8----8-------7----7---7------5---5---5------3---5------------|


e|---------------------------------------------------------------------|
B|---0---1w------0---1---3---1---0---0h1---0-----------0---1---3---1---|
G|---------------------------------------------2w----------------------|
D|---------------------------------------------------------------------|
A|---------------------------------------------------------------------|
E|---------------------------------------------------------------------|


e|------------------------------------------------------0------3---3---|
B|---0---0h1---0-------1-------------------------------0-------3---3---|
G|-----------------2-------2---0-------0---2----------1--------4---4---|
D|---------------------------------3-----------3-----2---------5---5---|
A|--------------------------------------------------2----------5---5---|
E|-------------------------------------------------0-----------3---3---|


e|---3---3---3---3---3-------------------------------------------------|
B|---3---3---3---3---3---1w------0---1---3---0---0h1---0-----------0---|
G|---4---4---4---4---4-------------------------------------2w----------|
D|---5---5---5---5---5-------------------------------------------------|
A|---5---5---5---5---5-------------------------------------------------|
E|---3---3---3---3---3-------------------------------------------------|


e|---------------------------------------------------------------------|
B|---1---3---1---0---0h1---0-------1-----------------------------------|
G|-----------------------------2-------2---0-------0---2---0-----------|
D|---------------------------------------------3---------------3-------|
A|---------------------------------------------------------------------|
E|---------------------------------------------------------------------|


e|-------0-------1-------0---0---0---0---0-----------------------------|
B|-------1-------1-------1---1---1---1---1-----------------------------|
G|-------0-------2-------0---0---0---0---0--------------0---2--2--2--1-|
D|-------2-------3-------2---2---2---2---2------2---3------------------|
A|-------3-------3-------3---3---3---3---3-----------------------------|
E|---0-------3---1---0-------------------------------------------------|


e|--------------------------------------------0w-----------3---3---3---|
B|------------------------------------0--------0w----------3---3---3---|
G|--2--2--2--1--2--2--2--1--2--1--2-------1-----2w---------4---4---4---|
D|-----------------------------------------------2w--------5---5---5---|
A|------------------------------------------------1w-------5---5---5---|
E|-------------------------------------------------0w------3---3---3---|


e|---3---3---3---3-----------------------------------------------------|
B|---3---3---3---3-------1w------0---1---3---0---0h1---0-----------0---|
G|---4---4---4---4-----------------------------------------2w----------|
D|---5---5---5---5-----------------------------------------------------|
A|---5---5---5---5-----------------------------------------------------|
E|---3---3---3---3-----------------------------------------------------|


e|---------------------------------------------------------------------|
B|---1---3---1---0---0h1---0-------1-----------------------------------|
G|-----------------------------2-------2---0-------0---2---0-----------|
D|---------------------------------------------3---------------3-------|
A|---------------------------------------------------------------------|
E|---------------------------------------------------------------------|

e|---------------------------------------------|
B|---1------1------1------3---3---3------1-----|
G|---0------2------0------4---4---4------0-----|
D|---2------3------2------5---5---5------2-----|
A|---------------------------------------------|
E|---------------------------------------------|

*ANOTHER DRUM SOLO*

e|-----5---5---5------3---3---3------1---1---1------0------0-----------|
B|-----5---5---5------3---3---3------1---1---1------0------0-----------|
G|-----6---6---6------4---4---4------2---2---2------1------1-----------|
D|-----7---7---7------5---5---5------3---3---3------2------2-----------|
A|-----7---7---7------5---5---5------3---3---3------2------2-----------|
E|-----5---5---5------3---3---3------1---1---1------0------0-----------|


e|-----5---5---5------3---3---3------1---1---1------0------0-----------|
B|-----5---5---5------3---3---3------1---1---1------0------0-----------|
G|-----6---6---6------4---4---4------2---2---2------1------1-----------|
D|-----7---7---7------5---5---5------3---3---3------2------2-----------|
A|-----7---7---7------5---5---5------3---3---3------2------2-----------|
E|-----5---5---5------3---3---3------1---1---1------0------0-----------|


e|---------------------------------------------------------------------|
B|----------------------------------------------1w---0-----------------|
G|--------2-----------------------------0---2--------------------------|
D|---2---------------------0---2---3-----------------------------------|
A|------------0---2---3------------------------------------------------|
E|---------------------------------------------------------------------|


e|---------------------------------------------------------------------|
B|-------------------------------------1---0---------------------------|
G|---2-----------------------------0---2---0---3---0---0--0---0w-------|
D|--------------------0---2---3----------------2---2---1--2---2w-------|
A|-------0---2---3-----------------------------------------------------|
E|---------------------------------------------------------------------|


e|---------------------------------------------------------------------|
B|---------------------------------------------------------------------|
G|-------------------------------------------1-------1---1---1---1-----|
D|---0---2---3---2---0-------0h2p0-------0---2-------2---2---2---2-----|
A|-----------------------3-----------3---------------------------------|
E|---------------------------------------------------------------------|


e|---------------------------------------------------------------------|
B|--------------------------------------------------------1w---0-------|
G|---1---1---1--------2---------------------------0---2----------------|
D|---2---2---2------------------------0---2---3------------------------|
A|------------------------0---2---3------------------------------------|
E|---------------------------------------------------------------------|


e|---------------------------------------------------------------------|
B|-----------------------------------1---0-----------------------------|
G|---2---------------------------0---2---0---2---0---0---0---0---------|
D|-------------------0---2---3---------------3---2---1---2---2------0--|
A|-------0---2---3-----------------------------------------------------|
E|---------------------------------------------------------------------|


e|---------------------------------------------------------------------|
B|---------------------------------------------------------------------|
G|---------------------------------------------------------------------|
D|---2---3---2---0-------0h2p0-------0-----------------------0---2---3-|
A|-------------------3-----------3-------3-------0---2---3-------------|
E|-------------------------------------------3-------------------------|


e|---------------------------------------------------------------------|
B|----------------1---1---1---1---1---1------1---1------1w-------------|
G|---0w---0w------0---0---0---0---0---0------2---2------2w------2------|
D|------------------------------------------------------------------3--|
A|---------------------------------------------------------------------|
E|---------------------------------------------------------------------|


e|---------------------------------------------------------------------|
B|-------------------0------------0-----------1w-----------------------|
G|-------2---------------1------------1-------2w-----------------------|
D|-----------3---------------2------------2-----------0---2---0--------|
A|---3-----------3------------------------------------------------3h5p3|
E|---------------------------------------------------------------------|


e|---------------------------------------------------------------------|
B|----------------------------------------------1w---0-----------------|
G|----------2---------------------------0---2---------------2----------|
D|--------------------------0---2---3----------------------------------|
A|---2----------0---2---3---------------------------------------0---2--|
E|---------------------------------------------------------------------|


e|---------------------------------------------------------------------|
B|-----------------------1---0-----------------------------------------|
G|-------------------0---2---0---3------0---0---0---0------------------|
D|-------0---2---3---------------2------2---0---2---2------0---2---3---|
A|---3-----------------------------------------------------------------|
E|---------------------------------------------------------------------|


e|------------------------------0w----|
B|-----------1---1---1---1------1w----|
G|-----------0---0---2---2------0w----|
D|---2---0----------------------1w----|
A|------------------------------2w----|
E|------------------------------------|



*Note: There may be some errors; I haven't checked through all of it (Perfidia)
comments
We did not receive enough feedback on this tab! Please rate:
print report bad tab
1 2 3 4 5
I want to post or [tab]
guest
You may want to rate the tab now too:
select rating
Please do not post tabs as comments. Select "correction" instead!