Oops, an error
Loading. Please wait.

Cant Believe A Single Word Tab

1,782 views 3 this week
2 commentsread comments
1 2 3 4 5
excellent!
x 2
Autoscroll
+/-
esc
set tempo
stop
Contributor
WARNING: You are trying to view
                                    content from Ultimate-Guitar.com
                                    in an unauthorized application,
                                    which is prohibited.

                                    Please use an official Ultimate
                                    Guitar Tabs application for iPhone,
                                    iPad or Android to access legitimate
                                    chords, guitar, bass, and drum tabs
                                    from Ultimate-Guitar.com database.

                                    Type "ultimate guitar tabs" in Apple
                                    App Store's or Android Market's
                                    search to find the application.
-------------------------------------------------------------------------------
                    Can't Believe A Single Word - VHS Or BETA
-------------------------------------------------------------------------------
Tabbed by: Kyle Mogilev
Email: switchblade333@gmail.com
Link to band's official website: http://www.vhsorbeta.com/

Tuning: Standard

+: beats
-: off-beats


Bear with me on the lyrics, they may not be 100% correct since I can't find them 
are the internet yet. This tab is broken down quite a bit, so it may be a tad confusing. Let me 
if you find any errors!

Intro: This can either be played by 1 guitar or 2. I broke it up into 2 guitars for ease.

Guitar 1
  + - + - + - + -  + - + - + - + -
e|3---5---7-------|----0---------3-|
B|------------0---|3-------0-------|
G|----------------|----------------| X 4
D|----------------|----------------|
A|----------------|----------------|
E|----------------|----------------|

Guitar 2
  + - + - + - + -  + - + - + - + -
e|----------------|----------------|
B|----------------|----------------|
G|0-0-0-0-0-0-0-0-|0-0-0-0-0-0-0-0-| X 4
D|----------------|----------------|
A|----------------|----------------|
E|----------------|----------------|


1st Verse: Play intro through the first half of the verse as shown:


Guitar 1
  + - + - + - + -  + - + - + - + -
e|3---5---7-------|----0---------3-|
B|------------0---|3-------0-------|
G|----------------|----------------| X 4
D|----------------|----------------|
A|----------------|----------------|
E|----------------|----------------|

Guitar 2
  + - + - + - + -  + - + - + - + -
e|----------------|----------------|
B|----------------|----------------|
G|0-0-0-0-0-0-0-0-|0-0-0-0-0-0-0-0-| X 4
D|----------------|----------------|
A|----------------|----------------|
E|----------------|----------------|


Hey you, in the middle of the night with the lights on,

Do you believe that you could love?

Hey you, with your head up in the clouds with your lights closed,

Did you ever think we'd grow?


2nd half of 1st verse: Guitar 1 keeps playing the intro riff while guitar 2 plays the following:

Guitar 1
  + - + - + - + -  + - + - + - + -
e|3---5---7-------|----0---------3-|
B|------------0---|3-------0-------|
G|----------------|----------------| X 4
D|----------------|----------------|
A|----------------|----------------|
E|----------------|----------------|

Guitar 2: Let it ring
  + - + - + - + -  + - + - + - + -
e|----------------|----------------|
B|----------------|----------------|
G|----------------|----------------| X 4
D|5---------------|5---------------|
A|5---------------|5---------------|
E|3---------------|3---------------|


Hey you, thought we'd never get away just to save face,

And the silence of it shows,

Hey you, you could wish it all away in a heartbeat,

But is it free, it free, it free, free, free, free,


Chorus: The O  O  means repeat


    + - + - + - + -  + - + - + - + -  + - + - + - + -  + - + - + - + -
e|  ----------------|----------------|----------------|----------------|
B|O ----------------|----------------|----------------|----------------|
G|  ----7---------5-|--5-5-5---------|----7---------5-|--5-5-5---------|
D|  5---7---5-----5-|--5-5-5-5-5-----|5---7---5-----5-|--5-5-5-5-------|
A|O 5---5---5-----3-|--3-3-3-5-5-----|5---5---5-----3-|--3-3-3-5-------|
E|  3-------3-------|--------3-3-----|3-------3-------|--------3-------|
    Don't you stop..                  Can't say no..
    Say to you...                     -way from here...

                                   __________________________________
                                   1.                                |
  + - + - + - + -  + - + - + - + -  + - + - + - + -  + - + - + - + -
e|----------------|----------------|----------------|----------------|
B|----------------|----------------|----------------|----------------|O
G|----7---------5-|--5-5-5---------|--------5-------|------4h5p4-----|
D|5---7---5-----5-|--5-5-5-5-5-----|2-------5-------|5-----------7p5-|
A|5---5---5-----3-|--3-3-3-5-5-----|2-------3-------|5---------------|O
E|3-------3-------|--------3-3-----|0---------------|3---------------|
  See inside...                     Can't believe..  Word...
  Believe now...

 ____________________________________________________________________
 2.                                                                  |
  + - + - + - + -  + - + - + - + -  + - + - + - + -  + - + - + - + -
e|----------------|----------------|----------------|----------------|
B|----------------|----------------|----------------|----------------|
G|--------5-------|------4h5p4-----|--------5-------|------4h5p4-----|
D|2-------5-------|5-----------7p5-|2-------5-------|5-----------7p5-|
A|2-------3-------|5---------------|2-------3-------|5---------------|
E|0---------------|3---------------|0---------------|3---------------|
  Can't believe...                  Said I can't...


Chorus lyrics:

Don't you stop, everybody wants you but you

Can't say no, if you really tried, but you

See inside, if you could believe it but you

Can't, believe a single word,I

Say to you, would you ever want to walk a-

-way from here, if you really loved,

Believe now, whatever you want to be-

-lieve, but you can't believe a word,I

Said, I can't believe a word...

Pre- 2nd Verse: Strum once and let ring until the 2nd verse starts:


  + - + - + - + -  + - + - + - + -  + - + - + - + -  + - + - + - + -
e|----------------|----------------|----------------|----------------|
B|----------------|----------------|----------------|----------------|
G|----------------|----------------|----------------|----------------|
D|5---------------|----------------|----------------|----------------|
A|5---------------|----------------|----------------|----------------|
E|3---------------|----------------|----------------|----------------|


2nd Verse, 1st half: strum and let ring


  + - + - + - + -  + - + - + - + -  + - + - + - + -  + - + - + - + -
e|----------------|----------------|----------------|----------------|
B|----------------|----------------|----------------|----------------|
G|----------------|----------------|----------------|----------------|
D|5---------------|--------------55|5---------------|--------------55|
A|5---------------|--------------55|5---------------|--------------55|
E|3---------------|--------------33|3---------------|--------------33|
    Hey you..                         Do you believe..


  + - + - + - + -  + - + - + - + -  + - + - + - + -  + - + - + - + -
e|----------------|----------------|----------------|----------------|
B|----------------|----------------|----------------|----------------|
G|----------------|----------------|----------------|----------------|
D|5---------------|--------------55|5---------------|----------555555|
A|5---------------|--------------55|5---------------|----------555555|
E|3---------------|--------------33|3---------------|----------333333|
    Hey you, doin everything...       What more is there..


2nd Verse, Part 2: Same as the 2nd half of Verse 1.


Chorus: Same as before, except only the first half of the chorus is sung and ends like 
second half.


Bridge:

Guitar 1
  + - + - + - + -  + - + - + - + -  + - + - + - + -  + - + - + - + -
e|--------0-------|----------------|--------0-------|----------------|
B|------0---------|----------------|------0---------|----------------|
G|----------------|------4-5-4-2-0-|----------------|------4-5-4-2-0-|
D|2-----------2---|3---------------|2-----------2---|3---------------|
A|----------------|----------------|----------------|----------------|
E|----------------|----------------|----------------|----------------|

Guitar 2
  + - + - + - + -  + - + - + - + -  + - + - + - + -  + - + - + - + -
e|----------------|----------------|----------------|----------------|
B|----------------|----------------|----------------|----------------|
G|----------------|----------------|----------------|----------------|
D|2------------2--|3---------------|2------------2--|3---------------|
A|2------------2--|3---------------|2------------2--|3---------------|
E|0------------0--|1---------------|0------------0--|1---------------|


Guitar 1
  + - + - + - + -  + - + - + - + -  + - + - + - + -  + - + - + - + -
e|--------0-------|----------------|----------------|----------------|
B|------0---------|----------------|----------------|----------------|
G|----------------|------4-5-4-2-0-|----------------|----------------|
D|2-----------2---|3---------------|----------------|----------------|
A|----------------|----------------|3---------------|----------------|
E|----------------|----------------|----------------|----------------|

Guitar 2
  + - + - + - + -  + - + - + - + -  + - + - + - + -  + - + - + - + -
e|----------------|----------------|----------------|----------------|
B|----------------|----------------|----------------|----------------|
G|----------------|----------------|5---------------|5555555555555555|
D|2------------2--|3---------------|5---------------|5555555555555555|
A|2------------2--|3---------------|3---------------|3333333333333333|
E|0------------0--|1---------------|----------------|----------------|


Guitar 1
  + - + - + - + -  + - + - + - + -  + - + - + - + -  + - + - + - + -
e|----------------|----------------|----------------|----------------|
B|----------------|----------------|----------------|----------------|
G|----------------|----------------|----------------|----------------|
D|----------------|----------------|----------------|----------------|
A|----------------|----------------|----------------|----------------|
E|----------------|----------------|----------------|----------------|

Guitar 2
  + - + - + - + -  + - + - + - + -  + - + - + - + -  + - + - + - + -
e|----------------|----------------|----------------|----------------|
B|----------------|----------------|----------------|----------------|
G|----------------|----------------|----------------|----------------|
D|5---------------|--------------55|5---------------|------------5---|
A|5---------------|--------------55|5---------------|------------5---|
E|3---------------|--------------33|3---------------|------------5---|


Guitar 1
  + - + - + - + -  + - + - + - + -  + - + - + - + -  + - + - + - + -
e|3---5---7-------|----0---------3-|3---5---7-------|----0---------3-|
B|------------0---|3-------0-------|------------0---|3-------0-------|
G|----------------|----------------|----------------|----------------|
D|----------------|----------------|----------------|----------------|
A|----------------|----------------|----------------|----------------|
E|----------------|----------------|----------------|----------------|

Guitar 2
  + - + - + - + -  + - + - + - + -  + - + - + - + -  + - + - + - + -
e|----------------|----------------|----------------|----------------|
B|----------------|----------------|----------------|----------------|
G|----------------|----------------|----------------|----------------|
D|5---5---5---5-5-|5---5---5---5-5-|5---5---5---5-5-|5---5---5---5-5-|
A|5---5---5---5-5-|5---5---5---5-5-|5---5---5---5-5-|5---5---5---5-5-|
E|3---3---3---3-3-|3---3---3---3-3-|3---3---3---3-3-|3---3---3---3-3-|


Guitar 1
  + - + - + - + -  + - + - + - + -  + - + - + - + -  + - + - + - + -
e|3---5---7-------|----0---------3-|3---5---7-------|----0---------3-|
B|------------0---|3-------0-------|------------0---|3-------0-------|
G|----------------|----------------|----------------|----------------|
D|----------------|----------------|----------------|----------------|
A|----------------|----------------|----------------|----------------|
E|----------------|----------------|----------------|----------------|

Guitar 2
  + - + - + - + -  + - + - + - + -  + - + - + - + -  + - + - + - + -
e|----------------|----------------|----------------|----------------|
B|----------------|----------------|----------------|----------------|
G|----------------|----------------|----------------|----------------|
D|5-5-5---5---5-5-|5-5-5---5---5-5-|5-5-5---5---5-5-|5-5-5-5-5-5-5-5-|
A|5-5-5---5---5-5-|5-5-5---5---5-5-|5-5-5---5---5-5-|5-5-5-5-5-5-5-5-|
E|3-3-3---3---3-3-|3-3-3---3---3-3-|3-3-3---3---3-3-|3-3-3-3-3-3-3-3-|


Chorus: Play through entire chorus, song ends abruptly at the end of it.


| /  slide up
| \  slide down
| h  hammer-on
| p  pull-off
| ~  vibrato
| +  harmonic
| x  Mute note
===============================================================================
comments
We did not receive enough feedback on this tab! Please rate:
print report bad tab
1 2 3 4 5
2 comments total.
0 reply
diegorocks wrote on January 3 2008, 04:05 am

Very good tab for a very good song. It deserves the 6 stars I'll give you. In my case, i like to play the part when it
says: "..if you really tried" like this: -755--- ,anyways, excellent job dude

0 reply
Azlan. wrote on August 27 2008, 07:52 pm

absolutely love this song, thanks for the tab! :)

I want to post or [tab]
guest
You may want to rate the tab now too:
select rating
Please do not post tabs as comments. Select "correction" instead!