Oops, an error
Loading. Please wait.

Psychic Vacuum Tab

1,158 views 9 this week
no commentswrite comment
1 2 3 4 5
please rate
Autoscroll
+/-
esc
set tempo
stop
Contributor
Difficulty
intermediate
Hey! There's an official Ultimate Guitar app which is ideal
for learning songs when you're away from computer. Get the app
WARNING: You are trying to view
                                    content from Ultimate-Guitar.com
                                    in an unauthorized application,
                                    which is prohibited.

                                    Please use an official Ultimate
                                    Guitar Tabs application for iPhone,
                                    iPad or Android to access legitimate
                                    chords, guitar, bass, and drum tabs
                                    from Ultimate-Guitar.com database.

                                    Type "ultimate guitar tabs" in Apple
                                    App Store's or Android Market's
                                    search to find the application.
---------------------------------------------------------------------------
                          PSYCHIC VACUUM - Voivod
---------------------------------------------------------------------------

Tabbed by: Greg Frisenda
Email: clanktherobot@yahoo.com

Tuning: Standard E

Riff A - Intro
e|-13-13-13-13-13-13-13-13-13-13-13-13-13-13-13-13-13-13------------------|
B|-12-12-12-12-12-12-12-12-12-12-12-12-12-12-12-12-12-12------------------|
G|-10-10-10-10-10-10-10-10-10-10-10-10-10-10-10-10-10-10------------------|
D|------------------------------------------------------------------------|
A|------------------------------------------------------------------------|
E|---------------------------------------------------------0-------0------|

e|-13-13-13-13-13-13-13-13-13-13-13-13-13-13-13-13-13-13------------------|
B|-12-12-12-12-12-12-12-12-12-12-12-12-12-12-12-12-12-12------------------|
G|-10-10-10-10-10-10-10-10-10-10-10-10-10-10-10-10-10-10------------------|
D|------------------------------------------------------------------------|
A|------------------------------------------------------------------------|
E|---------------------------------------------------------0-------0------|

e|-13-13-13-13-13-13-13-13-13-13-13-13-13-13-13-13-13-13-12-12-12-12-12-12|
B|-12-12-12-12-12-12-12-12-12-12-12-12-12-12-12-12-12-12-12-12-12-12-12-12|
G|-10-10-10-10-10-10-10-10-10-10-10-10-10-10-10-10-10-10------------------|
D|------------------------------------------------------------------------|
A|------------------------------------------------------------------------|
E|------------------------------------------------------------------------|

e|-13-13-13-13-13-13-10-10-10-10-10-10-12-12-12-12-12-12-8--8--8--8--8----|
B|-12-12-12-12-12-12-12-12-12-12-12-12-12-12-12-12-12-12-12-12-12-12-12---|
G|------------------------------------------------------------------------|
D|------------------------------------------------------------------------|
A|------------------------------------------------------------------------|
E|------------------------------------------------------------------------|

e|-10-10-10-10-10-10-12-12-12-12-12-12-12-12-12-12-12-12-12-12-12-12-12-12|
B|-12-12-12-12-12-12-11-11-11-11-11-11-11-11-11-11-11-11-11-11-11-11-11-11|
G|-------------------9--9--9--9--9--9--9--9--9--9--9--9--9--9--9--9--9--9-|
D|------------------------------------------------------------------------|
A|------------------------------------------------------------------------|
E|------------------------------------------------------------------------|

e|-12-12-12-12-12-12--|
B|-11-11-11-11-11-11--|
G|-9--9--9--9--9--9---|
D|--------------------|
A|--------------------|
E|--------------------|

Riff B - Verse
e|--------------------|
B|--------------------|
G|--------------------|
D|--------------2--2--|
A|-------2-3-4--------|
E|-0--2---------------|

Riff B - Overdub
e|-----------------|
B|-2---4--2--------|
G|-2---4--2----4---|
D|-2---4--2----4---|
A|-------------4---|
E|-----------------|

Riff C - Pre-Chorus
e|-------9--9-9-9-9-9-9-9-9-9-9-9--------9--9-9-9-9-9-9-9-9-9-9-9---------|
B|-9-9-9-8--8-8-8-8-8-8-8-8-8-8-8--9-9-9-8--8-8-8-8-8-8-8-8-8-8-8--9-9-9--|
G|-8-8-8-6--6-6-6-6-6-6-6-6-6-6-6--8-8-8-6--6-6-6-6-6-6-6-6-6-6-6--8-8-8--|
D|-6-6-6---------------------------6-6-6---------------------------6-6-6--|
A|------------------------------------------------------------------------|
E|------------------------------------------------------------------------|

e|-9--9-9-9-9-9-11-9-9-9-9----------9-9-9-9-9-11-9-9-9-9------------------|
B|-8--8-8-8-8-8-10-8-8-8-8-9-9-9-8--8-8-8-8-8-10-8-8-8-8-9-9-9-8--8-8-8-8-|
G|-6--6-6-6-6-6-8--6-6-6-6-8-8-8-6--6-6-6-6-6-8--6-6-6-6-8-8-8-6--6-6-6-6-|
D|-------------------------6-6-6-------------------------6-6-6-5--5-5-5-5-|
A|------------------------------------------------------------------------|
E|------------------------------------------------------------------------|

e|------------------------------------------------------------------------|
B|-8-8-8-8-8-8-8-8-8-8-8-8-8-8-8-8-8-4--4-4-4-4-4-4-4-4-4-4-4-4-4-4-4-4-4-|
G|-6-6-6-6-6-6-6-6-6-6-6-6-6-6-6-6-6-4--4-4-4-4-4-4-4-4-4-4-4-4-4-4-4-4-4-|
D|-5-5-5-5-5-5-5-5-5-5-5-5-5-5-5-5-5-6--6-6-6-6-6-6-6-6-6-6-6-6-6-6-6-6-6-|
A|------------------------------------------------------------------------|
E|------------------------------------------------------------------------|

e|-9--9-9-9-9-9-9-9-9-9-9-9-9-9-9-9-9-9-9-9-9-9-9----|
B|-8--8-8-8-8-8-8-8-8-8-8-8-8-8-8-8-8-8-8-8-8-8-8----|
G|-6--6-6-6-6-6-6-6-6-6-6-6-6-6-6-6-6-6-6-6-6-6-6----|
D|---------------------------------------------------|
A|---------------------------------------------------|
E|---------------------------------------------------|

Riff D - Chorus
e|------------------------------------------------|
B|------------------------------------------------|
G|-------4--------4-------------------------------|
D|-4--5--4--4--5--4--4-------------4--------------|
A|-3--6-----3--6-----3--3-3-3-3-3--3--3-3-3-3-3---|
E|------------------------------------------------|

Riff E - Fill
e|---------------------------------------|
B|-15-14-13-12---------------------------|
G|-------------14-13-12------------------|
D|----------------------14-13-12---------|
A|-------------------------------14-13---|
E|---------------------------------------|

Riff B - Second Verse
Riff B - Overdub
Riff C - Pre-Chorus
Riff D - Chorus

Solo - did not transcribe all of it yet

Last part of solo
e|------------------------------------------------------15----------------|
B|-17-14-14-17-14-14-17-14-19-14-14-19-14-14-19-14------15----------------|
G|-13-13-13-13-13-13-13-13-13-13-13-13-13-13-13-13------12----------------|
D|------------------------------------------------------------------------|
A|------------------------------------------------------------------------|
E|------------------------------------------------------------------------|

Riff F Version 1 - Left Guitar
Part 1
e|------------------------------------------------------------------------|
B|------------------------------------------------------------------------|
G|------------------------------------------------------------------------|
D|------------------------------------------------------------------------|
A|---------------------------------8-8-8-8-8---8-8-8-8-8---8-8-8----------|
E|-7-7-7-7-7---7-7-7-7-7---7-7-7------------------------------------------|

e|------------------------------------------------------------------------|
B|------------------------------------------------------------------------|
G|------------------------------------------------------------------------|
D|------------------------------------------------------------------------|
A|-7-7-7-7-7---7-7-7-7-7---7-7-7------------------------------------------|
E|---------------------------------6-6-6-6-6---6-6-6-6-6---6-6-6----------|

e|------------------------------------------------------------------------|
B|------------------------------------------------------------------------|
G|------------------------------------------------------------------------|
D|---------------------------------10-10-10-10-10---10-10-10-10-10--------|
A|------------------------------------------------------------------------|
E|-7-7-7-7-7---7-7-7-7-7---7-7-7------------------------------------------|

e|-------------|
B|-------------|
G|-------------|
D|-10-10-10----|
A|-------------|
E|-------------|

Part 2 - 2x
e|------------------------------------------------------------------------|
B|------------------------------------------------------------------------|
G|------------------------------------------------------------------------|
D|------------------------------------------------------------------------|
A|-8-8-8-8-8---8-8-8-8-8---8-8-8----11-11-11-11-11---11-11-11-11-11-------|
E|------------------------------------------------------------------------|

e|------------------------------------------------------------------------|
B|------------------------------------------------------------------------|
G|------------------------------------------------------------------------|
D|------------------------------------------------------------------------|
A|-11-11-11---9-9-9-9-9---9-9-9-9-9---9-9-9---8-8-8-8-8---8-8-8-8-8-------|
E|------------------------------------------------------------------------|

e|------------------------------------------------------------------------|
B|------------------------------------------------------------------------|
G|------------------------------------------------------------------------|
D|------------------------------------------------------------------------|
A|-8-8-8---7-7-7-7-7---7-7-7-7-7---7-7-7----------------------------------|
E|-----------------------------------------6-6-6-6-6---6-6-6-6-6---6-6-6--|

e|------------------------------------------------------------------------|
B|------------------------------------------------------------------------|
G|------------------------------------------------------------------------|
D|---------------------------------10-10-10-10-10---10-10-10-10-10--------|
A|------------------------------------------------------------------------|
E|-7-7-7-7-7---7-7-7-7-7---7-7-7------------------------------------------|

e|-------------|
B|-------------|
G|-------------|
D|-10-10-10----|
A|-------------|
E|-------------|

Right Guitar - same as left guitar, starts 2 measures after, ends early

Riff F Version 2 - This is a way to play both guitar parts at the same time
e|------------------------------------------------------------------------|
B|------------------------------------------------------------------------|
G|------------------------------------------------------------------------|
D|------------------------------------------------------------------------|
A|---------------------------------8-8-8-8-8---8-8-8-8-8---8-8-8----------|
E|-7-7-7-7-7---7-7-7-7-7---7-7-7------------------------------------------|

e|------------------------------------------------------------------------|
B|------------------------------------------------------------------------|
G|------------------------------------------------------------------------|
D|------------------------------------------------------------------------|
A|-7-7-7-7-7---7-7-7-7-7---7-7-7---8-8-8-8-8---8-8-8-8-8---8-8-8----------|
E|-7-7-7-7-7---7-7-7-7-7---7-7-7---6-6-6-6-6---6-6-6-6-6---6-6-6----------|

e|------------------------------------------------------------------------|
B|------------------------------------------------------------------------|
G|------------------------------------------------------------------------|
D|---------------------------------10-10-10-10-10---10-10-10-10-10--------|
A|-7-7-7-7-7---7-7-7-7-7---7-7-7------------------------------------------|
E|-7-7-7-7-7---7-7-7-7-7---7-7-7---6--6--6--6--6----6--6--6--6--6---------|

e|-------------|
B|-------------|
G|-------------|
D|-10-10-10----|
A|-------------|
E|-6--6--6-----|

Part 2 - 2x
e|------------------------------------------------------------------------|
B|------------------------------------------------------------------------|
G|------------------------------------------------------------------------|
D|----------------------------------10-10-10-10-10---10-10-10-10-10-------|
A|-8-8-8-8-8---8-8-8-8-8---8-8-8----11-11-11-11-11---11-11-11-11-11-------|
E|-7-7-7-7-7---7-7-7-7-7---7-7-7------------------------------------------|

e|------------------------------------------------------------------------|
B|------------------------------------------------------------------------|
G|------------------------------------------------------------------------|
D|-10-10-10---4-4-4-4-4---4-4-4-4-4---4-4-4---6-6-6-6-6---6-6-6-6-6-------|
A|-11-11-11---8-8-8-8-8---8-8-8-8-8---8-8-8---8-8-8-8-8---8-8-8-8-8-------|
E|------------------------------------------------------------------------|

e|------------------------------------------------------------------------|
B|------------------------------------------------------------------------|
G|------------------------------------------------------------------------|
D|-6-6-6---4-4-4-4-4---4-4-4-4-4---4-4-4----------------------------------|
A|-8-8-8---7-7-7-7-7---7-7-7-7-7---7-7-7---8-8-8-8-8---8-8-8-8-8---8-8-8--|
E|-----------------------------------------6-6-6-6-6---6-6-6-6-6---6-6-6--|

e|------------------------------------------------------------------------|
B|------------------------------------------------------------------------|
G|------------------------------------------------------------------------|
D|---------------------------------10-10-10-10-10---10-10-10-10-10--------|
A|-7-7-7-7-7---7-7-7-7-7---7-7-7------------------------------------------|
E|-7-7-7-7-7---7-7-7-7-7---7-7-7---6--6--6--6--6----6--6--6--6--6---------|

e|-------------|
B|-------------|
G|-------------|
D|-10-10-10----|
A|-------------|
E|-6--6--6-----|

Riff G - Bridge End
e|------------------------------------------------------------------------|
B|------------------------------------------------------------------------|
G|----------------------------------------------------------5-------------|
D|----------------------------------------------------------4-------------|
A|------------------------------------------------------------------------|
E|-2-2-0--2--2--2--2--2--2-0--2-2-0--2--2--2--2--2--2-0-------------------|

e|-----8-----10------12-------14------------------------------------------|
B|---7-----9------11-------13---------------------------------------------|
G|-5-----7------9-------11----------------------------------5-------------|
D|----------------------------------------------------------4-------------|
A|------------------------------------------------------------------------|
E|--------------------------------0--2--2--2--2--2--2-2-0-----------------|

e|-----8------12-------14-------16--------------------------------8-----10|
B|---7-----11-------13-------15---------------------------------7-----9---|
G|-5-----9-------11-------13----------------------------------5-----7-----|
D|------------------------------------------------------------------------|
A|------------------------------------------------------------------------|
E|----------------------------------0--2--2--2--2--2--2-2-0---------------|

e|------12-------14-------16--18-18-18-18-18-18-18-18-18-18-18-18-18-18-18|
B|---11-------13-------15-----17-17-17-17-17-17-17-17-17-17-17-17-17-17-17|
G|-9-------11-------13--------15-15-15-15-15-15-15-15-15-15-15-15-15-15-15|
D|------------------------------------------------------------------------|
A|------------------------------------------------------------------------|
E|------------------------------------------------------------------------|

e|-18-18-18-18-18-18-18-18-18-18-18-18-18-18-18-18-18---18----------------|
B|-17-17-17-17-17-17-17-17-17-17-17-17-17-17-17-17-17---17----------------|
G|-15-15-15-15-15-15-15-15-15-15-15-15-15-15-15-15-15---15----------------|
D|------------------------------------------------------------------------|
A|------------------------------------------------------------------------|
E|------------------------------------------------------------------------|

Riff H - End
e|------------------------------------------------------------------------|
B|---------------------12---------------12-------------12-----12----------|
G|---------------------12---------------12-------------12-----12----------|
D|---------------------12---------------12-------------12-----12----------|
A|---------------------10---------------10-------------10-----10----------|
E|-0-0-0-0-0-0-0-0-0-0----------0-0-0-0----0-0-0-0-0-0----0-0-------------|

e|------------------------------------------------------------------------|
B|---------12---------12---------12-12------------------------------------|
G|---------12---------12---------12-12------------------------------------|
D|---------12---------12---------12-12------------------------------------|
A|---------10---------10---------10-10------------------------------------|
E|-0-0-0-0----0-0-0-0----0-0-0-0------------------------------------------|


| /  slide up
| \  slide down
| h  hammer-on
| p  pull-off
| ~  vibrato
| +  harmonic
| x  Mute note
===========================================================================
comments
We did not receive enough feedback on this tab! Please rate:
print report bad tab
1 2 3 4 5
I want to post or [tab]
guest
You may want to rate the tab now too:
select rating
Please do not post tabs as comments. Select "correction" instead!