Oops, an error
Loading. Please wait.

Healing Subconsciously Tab

8,246 views 15 this week
1 commentread comment
1 2 3 4 5
excellent!
x 2
Autoscroll
+/-
esc
set tempo
stop
Contributor
Difficulty
Tuning
intermediate
D A D G B E
Hey! There's an official Ultimate Guitar app which is ideal
for learning songs when you're away from computer. Get the app
WARNING: You are trying to view
                                    content from Ultimate-Guitar.com
                                    in an unauthorized application,
                                    which is prohibited.

                                    Please use an official Ultimate
                                    Guitar Tabs application for iPhone,
                                    iPad or Android to access legitimate
                                    chords, guitar, bass, and drum tabs
                                    from Ultimate-Guitar.com database.

                                    Type "ultimate guitar tabs" in Apple
                                    App Store's or Android Market's
                                    search to find the application.
-------------------------------------------------------------------------------
                     HEALING SUBCONSCIOUSLY - Volbeat
              from the album - THE STRENGTH/THE SOUND/THE SONGS
-------------------------------------------------------------------------------

Tabbed by: Jimmie Streck

Email:jimmie_streck@comcast.net



Tuning: DADGBe (Drop D)


Guitar 1 - Played clean
e|-----------------------------------------------------------------------------|
B|-----------------------------------------------------------------------------|
G|---------------------------5/7-8--8/10\8-7-7h8p7p5--5/7-8--8/10\8-7-7h8p7p5--|
D|-----------------------------------------------------------------------------|
A|--------------------------3------------------------3-------------------------|
D|-----------------------------------------------------------------------------|
                            x                        x
Guitar 2 - played w/distortion
e|-----------------------------------------------------------------------------|
B|-----------------------------------------------------------------------------|
G|-----------------------------------------------------------------------------|
D|555555555555555555555555555555555555555555555555533335555555555555555555555--|
A|333333333333333333333333333333333333333333333333311113333333333333333333333--|
D|-----------------------------------------------------------------------------|
  xxxxxxxxxxxxxxxxxxxxxxxxxxxxxxxxxxxxxxxxxxxxxxxxxxxxxxxxxxxxxxxxxxxxxxxxxxx


Guitar 1 - played clean
e|-----------------------------------------------------------------------------|
B|-----------------------------------------------------------------------------|
G|57-8-10-10/12\10-8-10-8-7-8-7-5--57-8-10-10-8-7-8-7-5-7-5-3-5-3-5------------|
D|3--------------------------------3-------------------------------------------|
A|-----------------------------------------------------------------------------|
D|-----------------------------------------------------------------------------|

Guitar 2 - played w/distortion - *gradually decrease the palm mute and swell volume*
e|-----------------------------------------------------------------------------|
B|-----------------------------------------------------------------------------|
G|-----------------------------------------------------------------------------|
D|-----------------------------------------------------------------------------|
A|66666666666666666666666666666666633333333333333335555555555555555------------|
D|66666666666666666666666666666666633333333333333335555555555555555------------|
  xxxxxxxxxxxxxxxxxxxxxxxxxxxxxxxxxxxxxxxxxxxxxxxxxxxxxxxxxxxxxxxxx






Guitar 1 - played w/distortion for remainder of song...
e|-----------------------------------------------------------------------------|
B|-----------------------------------------------------------------------------|
G|5/7-8--8/10\8-7-7h8p7p5--5/7-8--8/10\8-7-7h8p7p5-----------------------------|
D|-----------------------------------------------------------------------------|
A|-----------------------------------------------------------------------------|
D|-----------------------------------------------------------------------------|

Guitar 2 -   Let each chord ring out...
e|-----------------------------------------------------------------------------|
B|-----------------------------------------------------------------------------|
G|-----------------------------------------------------------------------------|
D|5------------------3-3---5---------------------------------------------------|
A|3------------------1-1---3---------------------------------------------------|
D|-----------------------------------------------------------------------------|


Guitar 1
e|-----------------------------------------------------------------------------|
B|-----------------------------------------------------------------------------|
G|57-8-10-10/12\10-8-10-8-7-8-7-5--57-8-10-8--7--7h8p7\5h7-5h7p5\3h5-----------|
D|-----------------------------------------------------------------------------|
A|-----------------------------------------------------------------------------|
D|-----------------------------------------------------------------------------|

Guitar 2 - Let each chord ring out except for last 8 chords
e|-----------------------------------------------------------------------------|
B|-----------------------------------------------------------------------------|
G|-----------------------------------------------------------------------------|
D|-----------------------------------------------------------------------------|
A|6--------------------------------3--------------5--5--5555--5-5-5-5----------|
D|6--------------------------------3--------------5--5--5555--5-5-5-5----------|
                                                        xxxx  x x x x




Guitar 1
e|-----------------------------------------------------------------------------|
B|-----------------------------------------------------------------------------|
G|5/7-8--8/10\8-7-7h8p7p5--5/7-8--8/10\8-7-7h8p7p5-----------------------------|
D|-----------------------------------------------------------------------------|
A|-----------------------------------------------------------------------------|
D|-----------------------------------------------------------------------------|

Guitar 2 - Strum chords letting them ring...
e|-----------------------------------------------------------------------------|
B|-----------------------------------------------------------------------------|
G|-----------------------------------------------------------------------------|
D|555555555555555555555555555555555555555555555555533335555555555555555555555--|
A|333333333333333333333333333333333333333333333333311113333333333333333333333--|
D|-----------------------------------------------------------------------------|


Guitar 1
e|-----------------------------------------------------------------------------|
B|-----------------------------------------------------------------------------|
G|57-8-10-10/12\10-8-10-8-7-8-7-5--57-8-10-8--7--7h8p7\5h7-5h7p5\3-------------|
D|-----------------------------------------------------------------------------|
A|-----------------------------------------------------------------------------|
D|-----------------------------------------------------------------------------|

Guitar 2 - Strum chords letting them ring...
e|-----------------------------------------------------------------------------|
B|-----------------------------------------------------------------------------|
G|-----------------------------------------------------------------------------|
D|-----------------------------------------------------------------------------|
A|66666666666666666666666666666666633333333333333335555555555555555------------|
D|66666666666666666666666666666666633333333333333335555555555555555------------|



Guitar 1
e|-----------------------------------------------------------------------------|
B|-----------------------------------------------------------------------------|
G|5/7-8--8/10\8-7-7h8p7p5--5/7-8--8/10\8-7-7h8p7p5-----------------------------|
D|-----------------------------------------------------------------------------|
A|-----------------------------------------------------------------------------|
D|-----------------------------------------------------------------------------|

Guitar 2 - Strum chords letting them ring...
e|-----------------------------------------------------------------------------|
B|-----------------------------------------------------------------------------|
G|-----------------------------------------------------------------------------|
D|555555555555555555555555555555555555555555555555533335555555555555555555555--|
A|333333333333333333333333333333333333333333333333311113333333333333333333333--|
D|-----------------------------------------------------------------------------|



Guitar 1
e|----------------------------------------------------------------------------------------------|
B|----------------------------------------------------------------------------------------------|
G|57-8-10-10/12\10-8-10-8-7-8-7-5--57-8-10-8--7--7h8p7\5h7-5h7p5\3-5--------------------3h5p3---|
D|--------------------------------------------------------------------------------------------5-|
A|----------------------------------------------------------------------------------------------|
D|----------------------------------------------------------------------------------------------|

Guitar 2 - Strum chords letting them ring...
e|----------------------------------------------------------------------------------------------|
B|----------------------------------------------------------------------------------------------|
G|----------------------------------------------------------------------------------------------|
D|-----------------------------------------------------------------5-55555-55555-55555\3-3/5----|
A|666666666666666666666666666663333333333333333555555555555555-----3-33333-33333-33333\1-1/3----|
D|666666666666666666666666666663333333333333333555555555555555----------------------------------|
                                                                      xxxx  xxxx  xxxx    
                                                                      Repeat this last riff 2x



e|-----------------------------------------------------------------------------|
B|-----------------------------------------------------------------------------|
G|-----------------------------------------------------------------------------|
D|5-55555-55555-55555\3-3/5-55555-55555-55555-5-5-5----------------------------|
A|3-33333-33333-33333\1-1/3-33333-33333-33333-3-3-3----------------------------|
D|-----------------------------------------------------------------------------|
    xxxx  xxxx  xxxx        xxxx  xxxx  xxxx

e|-----------------------------------------------------------------------------|
B|-----------------------------------------------------------------------------|
G|-----------------------------------------------------------------------------|
D|-----------------------------------------------------------------------------|
A|666666666666666666666666333333333333555555555555-----------------------------|
D|666666666666666666666666333333333333555555555555-----------------------------|


e|-----------------------------------------------------------------------------|
B|-----------------------------------------------------------------------------|
G|-----------------------------------------------------------------------------|
D|5-55555-55555-55555\3-3/5-55555-55555-55555-5-5-5----------------------------|
A|3-33333-33333-33333\1-1/3-33333-33333-33333-3-3-3----------------------------|
D|-----------------------------------------------------------------------------|
    xxxx  xxxx  xxxx        xxxx  xxxx  xxxx

e|-----------------------------------------------------------------------------|
B|-----------------------------------------------------------------------------|
G|-----------------------------------------------------------------------------|
D|-----------------------------------------------------------------------------|
A|66666666666666666666666633333333333355555555555555555555---------------------|
D|66666666666666666666666633333333333355555555555555555555---------------------|





Guitar 1
e|-----------------------------------------------------------------------------|
B|-----------------------------------------------------------------------------|
G|5/7-8--8/10\8-7-7h8p7p5--5/7-8--8/10\8-7-7h8p7p5-----------------------------|
D|-----------------------------------------------------------------------------|
A|-----------------------------------------------------------------------------|
D|-----------------------------------------------------------------------------|

Guitar 2 - Strum chords letting them ring...
e|-----------------------------------------------------------------------------|
B|-----------------------------------------------------------------------------|
G|-----------------------------------------------------------------------------|
D|555555555555555555555555555555555555555555555555533335555555555555555555555--|
A|333333333333333333333333333333333333333333333333311113333333333333333333333--|
D|-----------------------------------------------------------------------------|


Guitar 1
e|-----------------------------------------------------------------------------|
B|-----------------------------------------------------------------------------|
G|57-8-10-10/12\10-8-10-8-7-8-7-5--57-8-10-8--7--7h8p7\5h7-5h7p5\3-------------|
D|-----------------------------------------------------------------------------|
A|-----------------------------------------------------------------------------|
D|-----------------------------------------------------------------------------|

Guitar 2 - Strum chords letting them ring...
e|-----------------------------------------------------------------------------|
B|-----------------------------------------------------------------------------|
G|-----------------------------------------------------------------------------|
D|-----------------------------------------------------------------------------|
A|66666666666666666666666666666666633333333333333335555555555555555------------|
D|66666666666666666666666666666666633333333333333335555555555555555------------|



Guitar 1
e|-----------------------------------------------------------------------------|
B|-----------------------------------------------------------------------------|
G|5/7-8--8/10\8-7-7h8p7p5--5/7-8--8/10\8-7-7h8p7p5-----------------------------|
D|-----------------------------------------------------------------------------|
A|-----------------------------------------------------------------------------|
D|-----------------------------------------------------------------------------|

Guitar 2 - Strum chords letting them ring...
e|-----------------------------------------------------------------------------|
B|-----------------------------------------------------------------------------|
G|-----------------------------------------------------------------------------|
D|555555555555555555555555555555555555555555555555533335555555555555555555555--|
A|333333333333333333333333333333333333333333333333311113333333333333333333333--|
D|-----------------------------------------------------------------------------|


Guitar 1
e|-----------------------------------------------------------------------------|
B|-----------------------------------------------------------------------------|
G|57-8-10-10/12\10-8-10-8-7-8-7-5--57-8-10-8--7--7h8p7\5h7-5h7p5\3h5\----------|
D|-----------------------------------------------------------------------------|
A|-----------------------------------------------------------------------------|
D|-----------------------------------------------------------------------------|

Guitar 2 - Strum chords letting them ring...
e|-----------------------------------------------------------------------------|
B|-----------------------------------------------------------------------------|
G|-----------------------------------------------------------------------------|
D|-----------------------------------------------------------------------------|
A|66666666666666666666666666666666633333333333333335555555555555555------------|
D|66666666666666666666666666666666633333333333333335555555555555555------------|






e|-----------------------------------------------------------------------------|
B|-----------------------------------------------------------------------------|
G|-----------------------------------------------------------------------------|
D|5-55555-55555-55555\3-3/5-55555-55555-55555-5-5-5----------------------------|
A|3-33333-33333-33333\1-1/3-33333-33333-33333-3-3-3----------------------------|
D|-----------------------------------------------------------------------------|
    xxxx  xxxx  xxxx        xxxx  xxxx  xxxx

e|-----------------------------------------------------------------------------|
B|-----------------------------------------------------------------------------|
G|-----------------------------------------------------------------------------|
D|-----------------------------------------------------------------------------|
A|666666666666666666666666333333333333555555555555-----------------------------|
D|666666666666666666666666333333333333555555555555-----------------------------|


e|-----------------------------------------------------------------------------|
B|-----------------------------------------------------------------------------|
G|-----------------------------------------------------------------------------|
D|5-55555-55555-55555\3-3/5-55555-55555-55555-5-5-5----------------------------|
A|3-33333-33333-33333\1-1/3-33333-33333-33333-3-3-3----------------------------|
D|-----------------------------------------------------------------------------|
    xxxx  xxxx  xxxx        xxxx  xxxx  xxxx

e|-----------------------------------------------------------------------------|
B|-----------------------------------------------------------------------------|
G|-----------------------------------------------------------------------------|
D|-----------------------------------------------------------------------------|
A|666666666666666666666666333333333333555555555555-----------------------------|
D|666666666666666666666666333333333333555555555555-----------------------------|







Guitar 1
e|-----------------------------8h10p8/10h12p10/12h13p12\6----------------------|
B|-----------------------------------------------------------------------------|
G|-----------------------------------------------------------------------------|
D|-----------------------------------------------------------------------------|
A|-----------------------------------------------------------------------------|
D|-----------------------------------------------------------------------------|

Guitar 2
e|-----------------------------------------------------------------------------|
B|-----------------------------------------------------------------------------|
G|-----------------------------------------------------------------------------|
D|-----------------------------------------------------------------------------|
A|6-666-6-666-6-666-6-666\1-111-1-111-1-111-1-111/-----------------------------|
D|6-666-6-666-6-666-6-666\1-111-1-111-1-111-1-111/-----------------------------|


Guitar 1
e|-----------------------------8h10p8/10h12p10/12h13p12\6----------------------|
B|-----------------------------------------------------------------------------|
G|-----------------------------------------------------------------------------|
D|-----------------------------------------------------------------------------|
A|-----------------------------------------------------------------------------|
D|-----------------------------------------------------------------------------|

Guitar 2
e|--------------------------------------------------------------------------------------------|
B|--------------------------------------------------------------------------------------------|
G|--------------------------------------------------------------------------------------------|
D|--------------------------------------------------------------------------------------------|
A|6-666-6-666-6-666-6-666\1-111-1-111-1-111-1-111/3-333-3-333-3-333-3-333/5-555-5-5555-5-5-5--|
D|6-666-6-666-6-666-6-666\1-111-1-111-1-111-1-111/3-333-3-333-3-333-3-333/5-555-5-5555-5-5-5--|
                                                                                     x x x x 





e|--------------------------------------------------------------------------------------------|
B|--------------------------------------------------------------------------------------------|
G|--------------------------------------------------------------------------------------------|
D|5-55555-55555-55555---------------------------5-55555-55555-55555---------------------------|
A|3-33333-33333-33333h6p5p3h53-33333-3333333333-3-33333-33333-33333h6p5p3h53-33333-3333333333-|
D|---------------------------3-33333-3333333333----------------------------3-33333-3333333333-|
    xxxxx xxxxx xxxx           xxxxx xxxxxxxxxx   xxxxx xxxxx xxxx           xxxxx xxxxxxxxxx

e|-----------------------------------------------------------------------------|
B|-----------------------------------------------------------------------------|
G|-----------------------------------------------------------------------------|
D|-----------------------------------------------------------------------------|
A|/6-66666-66666-6666666666\11111111111111111111-------------------------------|
D|/6-66666-66666-6666666666\11111111111111111111-------------------------------|
     xxxxx xxxxx xxxxxxxxxx 

e|--------------------------------------------------------------------------------------------|
B|--------------------------------------------------------------------------------------------|
G|--------------------------------------------------------------------------------------------|
D|5-55555-55555-55555-------------------------------------------------------------------------|
A|3-33333-33333-33333h6p5p3h53-33333-3333333333/6-66666-66666-6666666666\11111111111111111111-|
D|---------------------------3-33333-3333333333/6-66666-66666-6666666666\11111111111111111111-|
    xxxxx xxxxx xxxx           xxxxx xxxxxxxxxx   xxxxx xxxxx xxxxxxxxxx 






Guitar 1 - Solo
e|-----------------------------------------------------------------------------|
B|-----------------------------------------------------------------------------|
G|5h7~7-5-7-7/8~-8-7-5-3-5-3h5~-5-3-55/7-/8~-8/10\8-7-8-7\1-1/3~~~-------------|
D|-----------------------------------------------------------------------------|
A|-----------------------------------------------------------------------------|
D|-----------------------------------------------------------------------------|


Guitar 2
e|--------------------------------------------------------------------------------------------|
B|--------------------------------------------------------------------------------------------|
G|--------------------------------------------------------------------------------------------|
D|5-55555-55555-55555-------------------------------------------------------------------------|
A|3-33333-33333-33333h6p5p3h53-33333-3333333333/6-66666-66666-6666666666\11111111111111111111-|
D|---------------------------3-33333-3333333333/6-66666-66666-6666666666\11111111111111111111-|
    xxxxx xxxxx xxxx           xxxxx xxxxxxxxxx   xxxxx xxxxx xxxxxxxxxx 


Guitar 1 - solo
e|----------------------------------------------------------------------------------------------|
B|----------------------------------------------------------------------------------------------|
G|5h7-5h7-5h7-5h7-7/8-8/10-10/12\10-8-10-8-7-8-10~-12h13p12-10h12p10-8h10p8-7h8p7h8~-8-7\1-1/3~-|
D|----------------------------------------------------------------------------------------------|
A|----------------------------------------------------------------------------------------------|
D|----------------------------------------------------------------------------------------------|


Guitar 2
e|--------------------------------------------------------------------------------------------|
B|--------------------------------------------------------------------------------------------|
G|--------------------------------------------------------------------------------------------|
D|5-55555-55555-55555-------------------------------------------------------------------------|
A|3-33333-33333-33333h6p5p3h53-33333-3333333333/6-66666-66666-6666666666\11111111111111111111-|
D|---------------------------3-33333-3333333333/6-66666-66666-6666666666\11111111111111111111-|
    xxxxx xxxxx xxxx           xxxxx xxxxxxxxxx   xxxxx xxxxx xxxxxxxxxx 







Guitar 1 
e|-----------------------------------------------------------------------------|
B|-----------------------------------------------------------------------------|
G|5/7-8--8/10\8-7-7h8p7p5--5/7-8--8/10\8-7-7h8p7p5-----------------------------|
D|-----------------------------------------------------------------------------|
A|-----------------------------------------------------------------------------|
D|-----------------------------------------------------------------------------|


Guitar 2 -   Let each chord ring out...
e|-----------------------------------------------------------------------------|
B|-----------------------------------------------------------------------------|
G|-----------------------------------------------------------------------------|
D|5------------------3-3---5---------------------------------------------------|
A|3------------------1-1---3---------------------------------------------------|
D|-----------------------------------------------------------------------------|


Guitar 1
e|-----------------------------------------------------------------------------|
B|-----------------------------------------------------------------------------|
G|57-8-10-10/12\10-8-10-8-7-8-7-5--57-8-10-8--7--7h8p7\5h7-5h7p5\3h5-----------|
D|-----------------------------------------------------------------------------|
A|-----------------------------------------------------------------------------|
D|-----------------------------------------------------------------------------|


Guitar 2 - Let each chord ring out except for last 8 chords
e|-----------------------------------------------------------------------------|
B|-----------------------------------------------------------------------------|
G|-----------------------------------------------------------------------------|
D|-----------------------------------------------------------------------------|
A|6--------------------------------3--------------5--5--5555--5-5-5-5----------|
D|6--------------------------------3--------------5--5--5555--5-5-5-5----------|
                                                        xxxx  x x x x

Guitar 1
e|-----------------------------------------------------------------------------|
B|-----------------------------------------------------------------------------|
G|5/7-8--8/10\8-7-7h8p7p5--5/7-8--8/10\8-7-7h8p7p5-----------------------------|
D|-----------------------------------------------------------------------------|
A|-----------------------------------------------------------------------------|
D|-----------------------------------------------------------------------------| 


Guitar 2 - Strum chords letting them ring...
e|-----------------------------------------------------------------------------|
B|-----------------------------------------------------------------------------|
G|-----------------------------------------------------------------------------|
D|555555555555555555555555555555555555555555555555533335555555555555555555555--|
A|333333333333333333333333333333333333333333333333311113333333333333333333333--|
D|-----------------------------------------------------------------------------|


Guitar 1
e|-----------------------------------------------------------------------------|
B|-----------------------------------------------------------------------------|
G|57-8-10-10/12\10-8-10-8-7-8-7-5--57-8-10-8--7--7h8p7\5h7-5h7p5\3-------------|
D|-----------------------------------------------------------------------------|
A|-----------------------------------------------------------------------------|
D|-----------------------------------------------------------------------------|


Guitar 2 - Strum chords letting them ring...
e|-----------------------------------------------------------------------------|
B|-----------------------------------------------------------------------------|
G|-----------------------------------------------------------------------------|
D|-----------------------------------------------------------------------------|
A|66666666666666666666666666666666633333333333333335555555555555555------------|
D|66666666666666666666666666666666633333333333333335555555555555555------------|


Guitar 1
e|-----------------------------------------------------------------------------|
B|-----------------------------------------------------------------------------|
G|5/7-8--8/10\8-7-7h8p7p5--5/7-8--8/10\8-7-7h8p7p5-----------------------------|
D|-----------------------------------------------------------------------------|
A|-----------------------------------------------------------------------------|
D|-----------------------------------------------------------------------------|



Guitar 2 - Strum chords letting them ring...
e|-----------------------------------------------------------------------------|
B|-----------------------------------------------------------------------------|
G|-----------------------------------------------------------------------------|
D|555555555555555555555555555555555555555555555555533335555555555555555555555--|
A|333333333333333333333333333333333333333333333333311113333333333333333333333--|
D|-----------------------------------------------------------------------------|



Guitar 1
e|-----------------------------------------------------------------------------|
B|-----------------------------------------------------------------------------|
G|57-8-10-10/12\10-8-10-8-7-8-7-5--57-8-10-8--7--7h8p7\5h7-5h7p5\1-1h3/5/7-7/8-|
D|-----------------------------------------------------------------------------|
A|-----------------------------------------------------------------------------|
D|-----------------------------------------------------------------------------|


Guitar 2 - Strum chords letting them ring...
e|-----------------------------------------------------------------------------|
B|-----------------------------------------------------------------------------|
G|-----------------------------------------------------------------------------|
D|-----------------------------------------------------------------------------|
A|66666666666666666666666666666666633333333333333335555555555555555------------|
D|66666666666666666666666666666666633333333333333335555555555555555------------|



Guitar 1
e|--------------------------------------------------------------------------------|
B|1-1h3/5/7-7/8-0-0h5h7h8/10\8-7h8p7p5h7-\1-1/3/5/7-7/8-0-7-8-7h8p7\5-7p5\3/5-5\--|
G|--------------------------------------------------------------------------------|
D|--------------------------------------------------------------------------------|
A|--------------------------------------------------------------------------------|
D|--------------------------------------------------------------------------------|



e|--------------------------------------------------------------------------------|
B|--------------------------------------------------------------------------------|
G|--------------------------------------------------------------------------------|
D|---------------55555555555555555555555------------------------------------------|
A|66666666666666633333333333333333333333666666666666666655555555555555555555555---|
D|666666666666666-----------------------666666666666666655555555555555555555555---|







e|-----------------------------------------------------------------------------|
B|-----------------------------------------------------------------------------|
G|-----------------------------------------------------------------------------|
D|5-55555-55555-55555\3-3/5-55555-55555-55555-5-5-5----------------------------|
A|3-33333-33333-33333\1-1/3-33333-33333-33333-3-3-3----------------------------|
D|-----------------------------------------------------------------------------|
    xxxx  xxxx  xxxx        xxxx  xxxx  xxxx


e|-----------------------------------------------------------------------------|
B|-----------------------------------------------------------------------------|
G|-----------------------------------------------------------------------------|
D|-----------------------------------------------------------------------------|
A|666666666666666666666666333333333333555555555555-----------------------------|
D|666666666666666666666666333333333333555555555555-----------------------------|



e|-----------------------------------------------------------------------------|
B|-----------------------------------------------------------------------------|
G|-----------------------------------------------------------------------------|
D|5-55555-55555-55555\3-3/5-55555-55555-55555-5-5-5----------------------------|
A|3-33333-33333-33333\1-1/3-33333-33333-33333-3-3-3----------------------------|
D|-----------------------------------------------------------------------------|
    xxxx  xxxx  xxxx        xxxx  xxxx  xxxx


e|-----------------------------------------------------------------------------|
B|-----------------------------------------------------------------------------|
G|-----------------------------------------------------------------------------|
D|---------------------------------------------------------5-------------------|
A|6666666666666666666666663-----------5--------------------3-------------------|
D|6666666666666666666666663-----------5----------------------------------------|
                          Let the last 3 chords really ring...





| /  slide up
| \  slide down
| h  hammer-on
| p  pull-off
| ~  vibrato
| +  harmonic
| x  Mute note
===============================================================================
comments
We did not receive enough feedback on this tab! Please rate:
print report bad tab
1 2 3 4 5
1 comment total.
0 reply
Domas31 wrote on November 4 2010, 06:01 pm

Guitar 1
e|------8h10p8/10h12p10/12h13p12\6----------------------|
B|------------------------------------------------------|
G|------------------------------------------------------|
D|------------------------------------------------------|
A|------------------------------------------------------|
D|------------------------------------------------------|

Isn't played that high in my opinion.

E------------------
B------------------
G------------------
D------------------
A-1h3p1-3h5p3-5h6p6
D------------------

Try this and tell me if i'm wrong.

But great tab anyway 5*

I want to post or [tab]
guest
You may want to rate the tab now too:
select rating
Please do not post tabs as comments. Select "correction" instead!