Oops, an error
Loading. Please wait.

Cold Art Of War Tab

121 views 1 this week
no commentswrite comment
1 2 3 4 5
please rate
add to favorites launch autoscroll
font size
0
reset
Autoscroll
+/-
esc
set tempo
stop
Contributor
Difficulty
Tuning
advanced
C G C F A D
WARNING: You are trying to view
                                    content from Ultimate-Guitar.com
                                    in an unauthorized application,
                                    which is prohibited.

                                    Please use an official Ultimate
                                    Guitar Tabs application for iPhone,
                                    iPad or Android to access legitimate
                                    chords, guitar, bass, and drum tabs
                                    from Ultimate-Guitar.com database.

                                    Type "ultimate guitar tabs" in Apple
                                    App Store's or Android Market's
                                    search to find the application.
-----------------------------------------------------------------------------
                           Cold Art Of War (Album) - Washya
-----------------------------------------------------------------------------
Tuning: Drop C (Whole Album)
1. Cold Art Of War 
Tuning: Drop C (DAFCGC)
Intro
D|-----------------------------------------------------|
A|-----------------------------------------------------|
F|-----------------------------------------------------|
C|-----------------------------------------------------|
G|-----------------------------------------------------|
C|-0000006666665555511111111-0000006666665555551111111-|x4
PM ************************* ************************* 

Part 2 (Chorus)
D|-----------------------------------------------|
A|-----------------------------------------------|
F|-----------------------------------------------|
C|-----------------------------------------------|
G|-000000066666555551111110000006666655555511111-|
C|-000000066666555551111110000006666655555511111-|x2

Verses
D|-------------------------------------------------------|
A|-------------------------------------------------------|
F|-------------------------------------------------------|
C|-------------------------------------------------------|
G|-1-0-1-0-1-0-1-0-0000-11-0-1-0-2\1-0-1-2\1-0-1-1-0-1-0-|
C|-1-0-1-0-1-0-1-0-0000-11-0-1-0-2\1-0-1-2\1-0-1-1-0-1-0-|

Interlude
D|----------------------------------|
A|----------------------------------|
F|----------------------------------|
C|----------------------------------|
G|-1143-143-143-143-143-1143-0-1-3~-|
C|-1143-143-143-143-143-1143-0-1-3~-|


2. Cold Shadows 
Tuning: Drop C (DAFCGC)
Intro
D|-------------------------------------------------------------|
A|-------------------------------------------------------------|
F|-------------------------------------------------------------|
C|-------------------------------------------------------------|
G|-00-00-0000-00-00-00-0000-00-00-00-0000-00-00-00-0000-00-1-0-|
C|-00-00-0000-00-00-00-0000-00-00-00-0000-00-00-00-0000-00-1-0-|x2
PM ** ** **** ** ** ** **** ** ** ** **** ** ** ** **** **   

Verses
D|--------------------------------------|
A|--------13b--------15b--------13b-----|
F|--------------------------------------|
C|--------15b--------13b--------11b-----|
G|-1-0-xx-----1-0-xx-----1-0-xx-----2\1-|
C|-1-0-xx-----1-0-xx-----1-0-xx-----2\1-|

Chorus
D|--------------------------------------|
A|--------------------------------------|
F|-------5\4-------------5*-------10\7b-|
C|-1-3-6-5\4-3-1-3-1-6\5----0-1-0-------|
G|-1-3-6-3\2-3-1-3-1-6\5----0-1-0-8-\5b-|
C|-1-3-6-----3-1-3-1-6\5----0-1-0-------|


3. Black Ice
Tuning: Drop C (DAFCGC)
Intro
D|-15-13----------12---------|
A|-------12-14-15------------|
F|-------------------12h14~~-|
C|---------------------------|
G|---------------------------|
C|---------------------------|x13

Verses
D|---------|
A|---------|
F|------33-|
C|------22-|
G|-12\\-11-|
C|-12\\-11-|

Chorus
D|----------------------------------------------|
A|----------------------------------------------|
F|-------------------------------------3333-----|
C|-------------------------------------2222-----|
G|-3-2-0-2-222-3-2-0-2-222-3-2-0-2-222-1111-000-|
C|-3-2-0-2-222-3-2-0-2-222-3-2-0-2-222-1111-000-|
PM         ***         ***         *** 

4. Freedom Fighters
Tuning: Drop C (DAFCGC)
Intro
D|-------2-/3h5p3p2h3p2---------3-------2-2h3p2---------|
A|---3------------------3---3-------3-----------3p2---2-|
F|-2---2------------------2---2---2---2-------------3-2-|
C|----------------------------------------------------0-|
G|------------------------------------------------------|
C|------------------------------------------------------|

Verses
D|-------------------------------------|
A|-------------------------------------|
F|-44-77-------------------------------|
C|-44-77-55-44-00-/8-8-8-7--10\9-555h7-|
G|-22-55-55-44-00-/-7-7-7-8-8-\7-555h7-|
C|-------55-44-00-/--------------555h7-|

Chorus
D|----------------------------------------------------------|
A|-----------7-----------------------------5----------------|
F|-------------7-----------------------------5--------------|
C|---------------7777\555/101010---------------5555\333/888-|
G|-0-3-5---5-----5555\333/8-8-8--0-6-5---3-----3333\111/666-|
C|-0-3-5-5-----------------------0-6-5-3--------------------|
PM       * * * *                       * * * * 


5. Sleep
Tuning: Drop C (DAFCGC)
Intro
D|-----0-----------0--------------------7----9-----10----11\\-|
A|-------------------------0------------6----8-----9-----10\\-|
F|-------4-----4p3-------3---3---3---/5---/7----/8----/9------|
C|---5-------5---------5-----------5--------------------------|
G|-7-------7---------7---------7------------------------------|
C|------------------------------------------------------------|x5

Verses
D|--------------------------------------|
A|--------------------------------------|
F|--------------------------------------|
C|--------------------------------------|
G|--------5/6--------5/6--------5/6-6-3-|
C|-555555-5/6-555555-5/6-666666-5/6-6-3-|
PM ******     ******     ****** 

Chorus
D|-------------------------------------------------------------|
A|-------------------------------------------------------------|
F|-------------------------------------------------------------|
C|-555/666/777---------------333/444/555---------------3-2-7\\-|
G|-333/444/555/888888-555555-111/222/333-666666-333333-1-0-5\\-|
C|-------------888888-555555-------------666666-333333---------|


6. Kermana defekti (Defects of The Body)
Tuning: Drop C (DAFCGC)
Intro
D|--------------------------|
A|--------------------------|
F|--------------------------|
C|--------------------------|
G|-00000-00000-00000-010101-|
C|-00000-00000-00000-010101-|x3

Verses
D|--------------------------------------------------|   |----16----18~~-|
A|--------------------------------------------------|   |-------15------|
F|--------------------------------------------------|   |---------------|
C|--------------------------------------------------|   |---------------|
G|-555555333333331111111188888888777777333355555555-|   |-00------------|
C|-555555333333331111111188888888777777333355555555-|x5 |-00------------|

Chorus
D|---------------------------------------------|   |-------------|
A|---------------------------------------------|   |-------------|
F|---------------------------------------------|   |-------------|
C|---------------------------------------------|   |-------------|
G|-000-000-000-3-2-0-2-6-5-3-5-3-2-0-2-6-5-3-0-|   |-111-111-110-|
C|-000-000-000-3-2-0-2-6-5-3-5-3-2-0-2-6-5-3-0-|x3 |-111-111-110-|
PM *** *** ***                                       *** *** 


7. Brickhouse
Tuning: Drop C (DAFCGC)
Intro
D|-------------------------------------------|
A|-------------------------------------------|
F|----8----8\7----8----8\7----8----8\7-5-----|
C|-00-8-00-8\7-00-8-00-8\7-00-8-00-8\7-5-6/5-|
G|-00-6-00-6\5-00-6-00-6\5-00-6-00-6\5-3-6/5-|
C|-00---00-----00---00-----00---00-------6/5-|x12
PM **   **     **   **     **   **    

Verses
D|----------------------------|
A|----------------------------|
F|----------------------------|
C|-77-777-7-7\5--77-777-7-7\5-|
G|-55-555-5-5\3--55-555-5-5\3-|
C|-55-555-5-5\3--55-555-5-5\3-|
PM ** *** * *    ** *** * * 


Chorus
D|------------------------------|
A|------------------------------|
F|-----------10\9~---------7----|
C|-0-3-------------3---------5~-|
G|-0-3-------8-\7~-3-------5-5~-|
C|-0-3-0h3p0-------3-2h3p2---5~-|
PM     *****         ***** 

Lead
D|-16-13-15----/19-18-15~\\-|
A|----------15--------15~\\-|
F|--------------------------|
C|--------------------------|
G|--------------------------|
C|--------------------------|


8. Edited For Television 
Tuning: Drop C (DAFCGC)
Intro
D|--------------|
A|--------------|
F|--------------|
C|--------------|
G|-444411224444-|
C|-444411224444-|x8

Part 2 (Verses)
D|-----------------------|    |----------------------|
A|-----------------------|    |----------------------|
F|-----------------------|    |----------------------|
C|-----------------------|    |--------------5\4/5\4-|
G|-----------------------|    |-222200112222-3\2/3\2-|
C|-3p0-3p0-00h11-3p0h3p0-|x13 |-222200112222---------|x1

Chorus
D|----------------------------------------|
A|----------------------------------------|
F|-7---9\8/12\11---7\6--------------------|
C|----------------------------------------|
G|-5---7\6/10\9----5\4-7\4-00-0000-0-0h3~-|
C|---0-----------0-----7\4-00-0000-0-0h3~-|


9. Make A Monster
Tuning: Drop C (DAFCGC)
Intro
D|-------------------------------------------|
A|-------------------------------------------|
F|-------------------------------------------|
C|-----------------------------------------2-|
G|-0-3-5-x-0-3-5-0-3-5-x-0-3-5-x-0-3-5-0-1-0-|
C|-0-3-5-x-0-3-5-0-3-5-x-0-3-5-x-0-3-5-0-1---|

Verses
D|---------------------------------------------|
A|---------------------------------------------|
F|---------------------------------------------|
C|------5/7------5/7------5/8-5/7--------------|
G|------3/5------3/5------3/6-3/5------1-4-1-3-|
C|-0-00-----0-00-----0-00---------0-00-1-4-1-3-|
PM * **     * **     * **         * ** 

Chorus
D|---------------------------------------------|
A|---------------------------------------------|
F|-8-888-8-8-----8-888-8-8-----8-888-8/9-------|
C|-8-888-8-8-x-6-8-888-8-8-x-3-8-888-8/9-4h6\\-|
G|-6-666-6-6-x-6-6-666-6-6-x-3-6-666-6/7-4h6\\-|
C|-----------x-6-----------x-3-----------4h6\\-|


10. Crash And Buuuuuurn 
Tuning: Drop C (DAFCGC)
Intro
D|----------------------------------------------|
A|----------------------------------------------|
F|----------------------------------------------|
C|-7h8\\-------------------------------------3*-|
G|-7h8\\--------------------------/6-5-3--------|
C|-7h8\\-000-3-0-3-0-6666-33-3-33--------5h6----|x4

Verses
D|------------------------------------------|
A|------------------------------------------|
F|------------------------------------------|
C|-----------15-12-11-12\\------------------|
G|-----------15-12-11-12\\-555555-888-333\\-|
C|-000000000-15-12-11-12\\-555555-888-333\\-|
PM ********* 

Chorus
D|------------------------------------------------|   |-----------------|
A|------------------------------------------------|   |-----------------|
F|---------------------------------------------7*-|   |-555-5-5-5-5/6\\-|
C|-----------------------------------------4h5----|   |-555-5-5-5-5/6\\-|
G|-12-0-12-0-151515-1111-12-12-1212-/3h4h5--------|   |-333-3-3-3-3/4\\-|
C|-12-0-12-0-151515-1111-12-12-1212---------------|x3 |-----------------|
comments
We did not receive enough feedback on this tab! Please rate:
print report bad tab
1 2 3 4 5
I want to post or [tab]
guest
You may want to rate the tab now too:
select rating
Please do not post tabs as comments. Select "correction" instead!