Oops, an error
Loading. Please wait.

Shadow Of Betrayal Tab

4 views 1 this week
no commentswrite comment
1 2 3 4 5
please rate
Autoscroll
+/-
esc
set tempo
stop
Contributor
Difficulty
Tuning
advanced
D G C F A D
Hey! There's an official Ultimate Guitar app which is ideal
for learning songs when you're away from computer. Get the app
WARNING: You are trying to view
                                    content from Ultimate-Guitar.com
                                    in an unauthorized application,
                                    which is prohibited.

                                    Please use an official Ultimate
                                    Guitar Tabs application for iPhone,
                                    iPad or Android to access legitimate
                                    chords, guitar, bass, and drum tabs
                                    from Ultimate-Guitar.com database.

                                    Type "ultimate guitar tabs" in Apple
                                    App Store's or Android Market's
                                    search to find the application.
-----------------------------------------------------------------------------
                 Shadow Of Betrayal - Washya
-----------------------------------------------------------------------------
Tuning: D Standard (DAFCGD)
Intro
D|---------------------------------11----11-12-11-9-11-9--------------------|
A|----99----99-10-9-7-9-7---7---99----99-----------------11h12-9*-/dumpbar\-|
F|-77----77---------------9---7---------------------------------------------|
C|--------------------------------------------------------------------------|
G|--------------------------------------------------------------------------|
D|--------------------------------------------------------------------------|
PM **    **    **         *   *       **            ** 

Part 2
D|------------------------------------------------------|
A|------------------------------------------------------|
F|------------------------------------------------------|
C|---------------------------------------------9h10-7h9-|
G|---------------------------------------------9h10-7h9-|
D|-0-000-00-0-00--0-000-00-0-00--0-000-00-0-00----------|
PM * *** ** * **  * *** ** * **  * *** ** * ** 

Part 2 (continued)
D|---------------------------|
A|---------------------------|
F|---------------------------|
C|-2-3-5-------2-3-5---------|
G|-0-1-3-5-4-2-0-1-3-5-4-7\\-|
D|-------3-2-0-------3-2-5\\-|

Part 2 
D|----------------------|
A|-/15p12---------------|
F|--------14-/17p15-----|
C|------------------14~-|
G|----------------------|
D|----------------------|

Verses
D|--------------------------------------------------------------------|
A|--------------------------------------------------9-----------------|
F|--------------------------------------------9---8---8---------------|
C|-4-444444-444-444-44444-244-444-42-22-24444---9-------9----99-------|
G|-2-222222-222-222-22222-222-222-22-22-22222-------------8*-77-9-7-9-|
C|--------------------------------------------------------------7-5-7-|
PM * ****** *** *** ***** *** *** ** ** *****     

D|-------------------------------------------------------------|
A|-------------------------------------------------------------|
F|-------------------------------------------------------------|
C|---------------------------------------77h8---------------5*-|
G|---------------------------------------77h8-5/7-------4-2----|
D|-10p7-7777777h10p5-55555555h9p5-5555555-----3/5-2h4h5--------|
PM **** ************ ************ ******* 

D|-/20p18p17h20p18p17-------------------------------------------------------|
A|--------------------20p18p17h20p18p17-------------------------------------|
F|--------------------------------------20p18p17----------------------------|
C|-----------------------------------------------20p18p17h20p18p17----------|
G|-----------------------------------------------------------------20p18p17-|
D|--------------------------------------------------------------------------|
PM ************************************************************************

D|--------|
A|--------|
F|--------|
C|--------|
G|--------|
D|-19~~\\-|


Chorus
D|-----------14p12p10-----------------------18p16p14-------------------|
A|-9h11-11p9----------12--------13h15-15p13----------16----------------|
F|-----------------------11-----------------------------15-------------|
C|--------------------------12-----------------------------16----------|
G|------------------------------------------------------------77/9-2-3-|
D|------------------------------------------------------------55/7-0-1-|

D|---------------7---------------------------------------------------|
A|-5p4-----7p5p4---4h5-----------------------------------------------|
F|-----5---------------7-7h10p9p7---------------7-----6p5------------|
C|-------6---------------7------7-5-----6---8p6---6-8-----6h7--------|
G|--------------------------------5-7/8---8-------------------4h5----|
D|----------------------------------5/6---------------------------7*-|

Verses
D|--------------------------------------------------------------------|
A|--------------------------------------------------9-----------------|
F|--------------------------------------------9---8---8---------------|
C|-4-444444-444-444-44444-244-444-42-22-24444---9-------9----99-------|
G|-2-222222-222-222-22222-222-222-22-22-22222-------------8*-77-9-7-9-|
C|--------------------------------------------------------------7-5-7-|
PM * ****** *** *** ***** *** *** ** ** *****     

D|-------------------------------------------------------------|
A|-------------------------------------------------------------|
F|-------------------------------------------------------------|
C|---------------------------------------77h8---------------5*-|
G|---------------------------------------77h8-5/7-------4-2----|
D|-10p7-7777777h10p5-55555555h9p5-5555555-----3/5-2h4h5--------|
PM **** ************ ************ ******* 

D|-/20p18p17h20p18p17-------------------------------------------------------|
A|--------------------20p18p17h20p18p17-------------------------------------|
F|--------------------------------------20p18p17----------------------------|
C|-----------------------------------------------20p18p17h20p18p17----------|
G|-----------------------------------------------------------------20p18p17-|
D|--------------------------------------------------------------------------|
PM ************************************************************************

D|--------|
A|--------|
F|--------|
C|--------|
G|--------|
D|-19~~\\-|

Guitar Solo
D|---------------------------------------------15~----17-19-17-------------|
A|---12p11----------------16-------16----14h16-----15----------15-17-15-13-|
F|-9-------12-------12h14----14h16----16-----------------------------------|
C|------------11h13--------------------------------------------------------|
G|-------------------------------------------------------------------------|
D|-------------------------------------------------------------------------|

D|----------------17-19-17----19-17----18*--------------12-------------12-|
A|-------------15----------15-------15---------------12----13----13h14----|
F|-15-13-12---------------------------------------13----------14----------|
C|----------13-----------------------------/12h14-------------------------|
G|------------------------------------------------------------------------|
D|------------------------------------------------------------------------|

D|-------------12-------------12-------------------------16p14p13----16-|
A|----------12----13----13h14----13----14-12-13-------16----------14----|
F|-------13----------14-------------14----------14h16-------------------|
C|-12h14----------------------------------------------------------------|
G|----------------------------------------------------------------------|
D|----------------------------------------------------------------------|

D|-16p15p13-------17p15p14----------16h18p16p15-------------17----17----19~-|
A|----------14h15----------16----16-------------16p14p13h15----16----16-----|
F|----------------------------15--------------------------------------------|
C|--------------------------------------------------------------------------|
G|--------------------------------------------------------------------------|
D|--------------------------------------------------------------------------|

Intro
D|---------------------------------11----11-12-11-9-11-9--------------------|
A|----99----99-10-9-7-9-7---7---99----99-----------------11h12-9*-/dumpbar\-|
F|-77----77---------------9---7---------------------------------------------|
C|--------------------------------------------------------------------------|
G|--------------------------------------------------------------------------|
D|--------------------------------------------------------------------------|
PM **    **    **         *   *       **            ** 

Part 2
D|------------------------------------------------------|
A|------------------------------------------------------|
F|------------------------------------------------------|
C|---------------------------------------------9h10-7h9-|
G|---------------------------------------------9h10-7h9-|
D|-0-000-00-0-00--0-000-00-0-00--0-000-00-0-00----------|
PM * *** ** * **  * *** ** * **  * *** ** * ** 

Part 2 (continued)
D|---------------------------|
A|---------------------------|
F|---------------------------|
C|-2-3-5-------2-3-5---------|
G|-0-1-3-5-4-2-0-1-3-5-4-7\\-|
D|-------3-2-0-------3-2-5\\-|

Part 2 
D|----------------------|
A|-/15p12---------------|
F|--------14-/17p15-----|
C|------------------14~-|
G|----------------------|
D|----------------------|

Verses
D|--------------------------------------------------------------------|
A|--------------------------------------------------9-----------------|
F|--------------------------------------------9---8---8---------------|
C|-4-444444-444-444-44444-244-444-42-22-24444---9-------9----99-------|
G|-2-222222-222-222-22222-222-222-22-22-22222-------------8*-77-9-7-9-|
C|--------------------------------------------------------------7-5-7-|
PM * ****** *** *** ***** *** *** ** ** *****     

D|-------------------------------------------------------------|
A|-------------------------------------------------------------|
F|-------------------------------------------------------------|
C|---------------------------------------77h8---------------5*-|
G|---------------------------------------77h8-5/7-------4-2----|
D|-10p7-7777777h10p5-55555555h9p5-5555555-----3/5-2h4h5--------|
PM **** ************ ************ ******* 

D|-/20p18p17h20p18p17-------------------------------------------------------|
A|--------------------20p18p17h20p18p17-------------------------------------|
F|--------------------------------------20p18p17----------------------------|
C|-----------------------------------------------20p18p17h20p18p17----------|
G|-----------------------------------------------------------------20p18p17-|
D|--------------------------------------------------------------------------|
PM ************************************************************************

D|--------|
A|--------|
F|--------|
C|--------|
G|--------|
D|-19~~\\-|


Chorus
D|-----------14p12p10-----------------------18p16p14-------------------|
A|-9h11-11p9----------12--------13h15-15p13----------16----------------|
F|-----------------------11-----------------------------15-------------|
C|--------------------------12-----------------------------16----------|
G|------------------------------------------------------------77/9-2-3-|
D|------------------------------------------------------------55/7-0-1-|

D|---------------7---------------------------------------------------|
A|-5p4-----7p5p4---4h5-----------------------------------------------|
F|-----5---------------7-7h10p9p7---------------7-----6p5------------|
C|-------6---------------7------7-5-----6---8p6---6-8-----6h7--------|
G|--------------------------------5-7/8---8-------------------4h5----|
D|----------------------------------5/6---------------------------7*-|
comments
We did not receive enough feedback on this tab! Please rate:
print report bad tab
1 2 3 4 5
I want to post or [tab]
guest
You may want to rate the tab now too:
select rating
Please do not post tabs as comments. Select "correction" instead!