Oops, an error
Loading. Please wait.

Survival Instinct Tab

ver1
ver1

Album

Whole song

More versions @911Tabs.com
67 views 1 this week
no commentswrite comment
1 2 3 4 5
please rate
add to favorites launch autoscroll
font size
0
reset
Autoscroll
+/-
esc
set tempo
stop
Contributor
Difficulty
intermediate
WARNING: You are trying to view
                                    content from Ultimate-Guitar.com
                                    in an unauthorized application,
                                    which is prohibited.

                                    Please use an official Ultimate
                                    Guitar Tabs application for iPhone,
                                    iPad or Android to access legitimate
                                    chords, guitar, bass, and drum tabs
                                    from Ultimate-Guitar.com database.

                                    Type "ultimate guitar tabs" in Apple
                                    App Store's or Android Market's
                                    search to find the application.
Survival Instinct - Album Tab
1.Freshness
2.The Devil's Dance
3.Survival Instinct
4.Strangle The Goat
5.Acidity
6.Slashed
7.Poison Running through Your Veins
8.Permanence
9.Zombie Thriller
10.Banshee
11.Cruel Seas
12.The Slaughter


-----------------------------------------------------------------------------
		1.	     Freshness - Washya
-----------------------------------------------------------------------------



Tuning: Standard
Strum Chords
Intro
e|-0-0-0-0-0-0-0-0-3-3-0-0-0-0-0-2~---|
B|-0-0-1-1-1-0-0-0-3-3-2-2-2-2-2-3~---|
G|-2-2-0-0-0-0-0-0-0-0-2-2-2-2-2-2~---|
D|-2-2-2-2-2-2-2-2-0-0-2-2-2-2-2-0~---|
A|-1-1-3-3-3-2-2-2-2-2-0-0-0-0-0-0~---|
E|-0-0-0-0-0-0-0-0-3-3-0-0-0-0-0-0~---|




Verse 1.
A,             C
Welcome to another day
C,             Em
When all your troubles fade away
A,             G
Find yourself again  
G,             Em 
It's what you always planned

Chorus

Am,                 C
The freshness of the earth
Am,                 C
Will never be forgotten
C,           A,          D
The wonders of the southern land
Am,                      G,
Will lend you a helping hand
A,    G
yeah yeah
G,           C,         A
freshness of the southern land 


Verse 2.

Am,            Em
Everything is sweet
G,             A,
And everyone we meet

Em,            A,        G.
Is  wondered by the freshness of the earth

D,           G,           C
Dew moistens the soft green grass

Em,       A,         C,      D
Treading lightly as we pass



Chorus

Am,                 C
The freshness of the earth
Am,                 C
Will never be forgotten
C,           A,          D
The wonders of the southern land
Am,                      G,
Will lend you a helping hand
A,    G
yeah yeah
G,           C,         A
freshness of the southern land



Guitar Solo
e|----------------------------------------------------------0--|
B|-------------4---4---4--4-2-0---------------------------1----|
G|-----2-2-4-2---2---2----------4-2-0-------------------2------|
D|---2--------------------------------4-2-0-----------0--------|
A|-0----------------------------------------4-2-0---3----------|
E|------------------------------------------------1------------|


-----------------------------------------------------------------------------
		2.	     The Devil's Dance - Band Name
-----------------------------------------------------------------------------
Tabbed by: josh
Email:

Tuning: Drop C
Very Heavy Intro (play fast)
D|----------------------------------------------------------|
A|----------------------------------------------------------|
F|----------------------------------------------------5-5-5-|
C|-0-3-5-6-5-3-0-3-5-6-5-3-0-3-5-6-5-3-5~-0-3-5-6-5-3-5-5-5-|
G|-0-3-5-6-5-3-0-3-5-6-5-3-0-3-5-6-5-3----0-3-5-6-5-3-3-3-3-|
C|-0-3-5-6-5-3-0-3-5-6-5-3-0-3-5-6-5-3----0-3-5-6-5-3-------|

Verses (same as intro but this time palm muted)
D|------------------------------------------------------------|
A|------------------------------------------------------------|
F|----------------------------------------------------5-5-5---|
C|-0-3-5-6-5-3-0-3-5-6-5-3-0-3-5-6-5-3-5~-0-3-5-6-5-3-5-5-5---|
G|-0-3-5-6-5-3-0-3-5-6-5-3-0-3-5-6-5-3----0-3-5-6-5-3-3-3-3---|
C|-0-3-5-6-5-3-0-3-5-6-5-3-0-3-5-6-5-3----0-3-5-6-5-3---------|
pm . . . . . . . . . . . . . . . . . .    . . . . . .   

Guitar Solo (played Slow)
D|----------------------------------------------------------------------|
A|---------------------------------9-11b-9-----------------------12-15~-|
F|--------------9-9b-7----7---9-11---------11------------7-9b-11--------|
C|-7~-----9-7-7--------9b---7-----------------9-11-9---9----------------|
G|----9-7--------------------------------------------7------------------|
C|----------------------------------------------------------------------|


-----------------------------------------------------------------------------
			3.     Survival Instinct - Washya
-----------------------------------------------------------------------------
Tabbed by: Josh
Email:

Tuning: Standard (EADgbe)
Intro
e|-------------------------------------------------|
B|-------------------------------------------------|
G|-----------------------------2-------------------|
D|-2-2--<5>--2-2--<5>--2-2---2---------------------|
A|-2-2-------2-2-------2-2-0-----------------------|
E|-0-0-------0-0-------0-0-------pickslide//-------|
pm . .       . .       . .  


e|------------------------------------------------------------------|
B|------------------------------------------------------------------|
G|--------------------------------------------2-2-3-3-4-4-4-4-5-5-5-|
D|-2-2-2-2-2-2--2-2-2---2-2-2-2-2---2-2-2-2-2-2-2-3-3-4-4-4-4-5-5-5-|
A|-2-2-2-2-2-2--2-2-2---2-2-2-2-2---2-2-2-2-2-0-0-1-1-2-2-2-2-3-3-3-|
E|-0-0-0-0-0-0--0-0-0---0-0-0-0-0---0-0-0-0-0-----------------------|
pm . . . . . .  . . .   . . . . .   . . . . . . . . . . . . . . . .  

Main Riff
e|---------------------------------------------------------|
B|---------------------------------------------------------|
G|---------------------------------------------------------|
D|-----------------------3---------------------------5-4-3-|
A|---5-3-----3-0-5-3-0-5---0-3-----------------------5-4-3-|
E|-0-----0-5-------------------5-0-3-5-0-6-5-3-0-3-5-3-2-1-|
pm                             . . . . . . . . . . .     

Verses
e|--------------------------------------------------------|
B|--------------------------------------------------------|
G|--------------------------------------------------------|
D|--------------------------------------------------------|
A|---------------------------------6-6h7p6----------------|
E|-0-6-3-5-6-0-6-3-5-6-0-6-3-5-6-0---------8-7-5-3-5-6----|
pm . . . . . . . . . . . . . . . .         . . . . . . 

Chorus
e|---------------------------------------------------------------|
B|--------------------------12-12\11-11--------------------------|
G|--------------------------12-12\11-11--------------------------|
D|-4-4/7-7-7\5-5-5-2-2-2-2--10-10\9--9--11-11-9-9-7-7-7-7-7-7----|
A|-4-4/7-7-7\5-5-5-2-2-2-2--------------11-11-9-9-7-7-7-7-7-7----|
E|-2-2/5-5-5\3-3-3-0-0-0-0--------------9--9--7-7-5-5-5-5-5-5----|

e|------------------------------------------------------------------|
B|------------------------------------------------------------------|
G|---------------------------------7-7-7-4-4-4-----------------4~---|
D|-5-5-5-5-5-5-5-3-3-3-3-3-3-3-3-3-7-7-7-4-4-4-------------4-6------|
A|-5-5-5-5-5-5-5-3-3-3-3-3-3-3-3-3-5-5-5-2-2-2-------3-5-6----------|
E|-3-3-3-3-3-3-3-1-1-1-1-1-1-1-1-1-------------3-5-6----------------|
pm                                             . . . . . . . . .    

Main Riff
e|---------------------------------------------------------|
B|---------------------------------------------------------|
G|---------------------------------------------------------|
D|-----------------------3---------------------------5-4-3-|
A|---5-3-----3-0-5-3-0-5---0-3-----------------------5-4-3-|
E|-0-----0-5-------------------5-0-3-5-0-6-5-3-0-3-5-3-2-1-|
pm                             . . . . . . . . . . .     

Verses
e|--------------------------------------------------------|
B|--------------------------------------------------------|
G|--------------------------------------------------------|
D|--------------------------------------------------------|
A|---------------------------------6-6h7p6----------------|
E|-0-6-3-5-6-0-6-3-5-6-0-6-3-5-6-0---------8-7-5-3-5-6----|
pm . . . . . . . . . . . . . . . .         . . . . . . 


Guitar solo
e|----------------------------------------------------------------12~-|
B|-------------------------------------------------------------15-----|
G|----------------------------------------------12----12-14-16--------|
D|-------------------------------------11-12-15----15-----------------|
A|-------------------11-12-15-11-12-15--------------------------------|
E|-11-12-15-11-12-15--------------------------------------------------|


e|-12-15-14-12-15-14-12----------------------------------------------------|
b|----------------------15-14-12-15-14----15-------------------------------|
g|-------------------------------------12----12-15-14----------------------|
D|----------------------------------------------------12-15----------------|
A|----------------------------------------------------------12-15----------|
E|----------------------------------------------------------------12-------|

e|-------------------------------------------------------------22----22~--|
b|----------------------------------------------------------20----20------|
g|-------------------------------16-18-19----18----18----18---------------|
D|----------------------------14----------17----17----17------------------|
A|-------12-15----15-17-15-12---------------------------------------------|
E|-12-15-------12---------------------------------------------------------|


----------------------------------------------------------------------------
			4.    Strangle The Goat - Washya
----------------------------------------------------------------------------
Tabbed by: Josh
Email:

Tuning: Drop C
Intro
D|---------------3-----------------3----3-----------------5~-|
A|-------------3---3-------------3---3----------------3-5----|
F|-------0---0-------------0---0----------------0---0--------|
C|-----4---4-------------4---4----------------4---4----------|
G|---2-----------------2--------------------2----------------|
C|-0-----------------0--------------------0------------------|

Intro 2.
D|-------------------------------------------------------------------|
A|-------------------------------------------------------------------|
F|------------------------------------------------------5-3-2--------|
C|--------------------------1---------------1-------2-3-------5------|
G|--------------------------1---------------1-2-3-5-------------3-2--|
C|-0-0-0---0-0-0-0-0-0-0-0--1-0--0-0-0-0-0--1------------------------|
pm . . .   . . . . . . . .    .  . . . . .    . . . . . . . . . . .  

Verses
D|--------------------2-------------------------------------------------|
A|--------------------2--------------------------------------------8b~--|
F|--------------4-4-4-2---2-0---2-4----------6-4-----------------6------|
C|--------------4-4-4---4-----4-----4-4-4-4------6-4-----2-2-2-4--------|
G|--------------2-2-2---------------4-4-4-4----------6---2-2-2----------|
C|-pickslide-//---------------------4-4-4-4------------4-2-2-2----------|


D|----------------------------------------------------------------------|
A|----------------------------------------------------------------------|
F|----------------9-6------------8-8-8------12-12----13~-12---------2-0-|
C|-9-9-9-7-7-7-7------9-6-----8~-8-8-8-8-10-------10-----12-----5-3-----|
G|-9-9-9-7-7-7-7----------9-6----6-6-6-------------------10-8-7---------|
C|-9-9-9-7-7-7-7--------------------------------------------------------|

D|-----------------------7~-9----------------------------------------|
A|-----------------4-6-4----9-----------------------3-------------2~-|
F|-2-2-2-----2-4-6----------9---------------------3---1-------3-1----|
C|-2-2-2---2------------------7-5-3-3-3-3-1-1-1-1-------3---1--------|
G|-0-0-0-0--------------------------3-3-3-1-1-1-----------3----------|
C|----------------------------------3-3-3-1-1-1----------------------|

Guitar Solo
D|-----------------4-6-7-4-6-7-4-6-7-6-4-6-7-------------------10-|
A|-------------4-6---------------------------6-4-------8-10-12----|
F|---------4-6-----------------------------------6-4-7------------|
C|-----4-6--------------------------------------------------------|
G|-4-6------------------------------------------------------------|
C|----------------------------------------------------------------|

D|-8-7-8-10-8-7-8-10---------------13-15-16-15-13-15-16-------------14b-|
A|-------------------12-10-8-10-12----------------------14-12----12-----|
F|------------------------------------------------------------14--------|
C|----------------------------------------------------------------------|
G|----------------------------------------------------------------------|
C|----------------------------------------------------------------------|

D|-14b-14-16-17-16-14-16-------18-20-21b-21b-22-22-22b~--------------------|
A|-----------------------14-16-----------------------------------16----20~-|
F|---------------------------------------------------------15-18----18-----|
C|------------------------------------------------------17-----------------|
G|-------------------------------------------------------------------------|
C|-------------------------------------------------------------------------|


----------------------------------------------------------------------------
                     5.   Acidity - Washya
----------------------------------------------------------------------------
Tuning: Drop C
Intro
F|--------------------------------------------------------------------------|
A|--------------------------------------------------------------------------|
D|-----9---9---9---9---------5-5-5-5---9--9---9---5-5-5-5-5-5---------------|
C|-----9---9---9---9-0-3-3-3-5-5-5-5---9--9---9---5-5-5-5-5-5-8-8-8-5-5-5-5-|
G|-----7---7---7---7-0-3-3-3-3-3-3-3---7--7---7---3-3-3-3-3-3-8-8-8-5-5-5-5-|
C|-0-0---0---0---0---0-3-3-3---------0--0--0---0--------------8-8-8-5-5-5-5-|
pm . .   .   .   .   .               .   .  .   .  

Main Riff/Verses
F|-------------------------------------------------------------------|
A|-------------------------------------------------------------------|
D|-------------------------------------------7-----------------------|
C|-------------------7---9---------------------9-7-----------7-------|
G|---------------7-9---9-----------------7-9-------------7-9---9-----|
C|-0-0-0---0-0-0-----------0-0-0---0-0-0-----------0-0-0---------8-7-|
pm . . .   . . .           . . .   . . .           . . .   

Chorus
F|-----------------------------------------------|
A|-----------------------------------------------|
D|-7-7-9-9-5-5-5---------------------3-3-3-2-2-2-|
C|-7-7-9-9-5-5-5-3-3-3-3-6-6-6-1-1-1-3-3-3-2-2-2-|
G|-5-5-7-7-3-3-3-3-3-3-3-6-6-6-1-1-1-1-1-1-0-0-0-|
C|---------------3-3-3-3-6-6-6-1-1-1-------------|

Guitar Solo
F|-13b~-13-------13-------13-------17-------------------------15-----------|
A|---------12-15----12-15----12-15----15-------------------16----14--------|
D|---------------------------------------14-15----------17----------13-----|
C|---------------------------------------------12-13-15----------------12--|
G|-------------------------------------------------------------------------|
C|-------------------------------------------------------------------------|

F|------------------15h17p15----------------------------15---------------21-|
A|------------15-12----------12-15-------------------15----15---------------|
D|---------14----------------------12-------------17----------17-17----19---|
C|-12b~-12----------------------------15-12-15-17-------------------18------|
G|--------------------------------------------------------------------------|
C|--------------------------------------------------------------------------|

-----------------------------------------------------------------------------
                  6.   Slashed - Washya
-----------------------------------------------------------------------------
Tabbed By: Josh
Tuning: Drop D

Intro
e|--------------------------------------------------------------|
B|--------------------------------------------------------------|
G|--------------------------------------------------------------|
D|-5/9-9-9-10p9-5/9-5/9--5/9-9-9-10h12~-10----------------5/9~--|
A|-3/7-7-7------3/7-3/7--3/7-7-7-----------12-10-12-10-12-3-----|
D|-----------------------------------------------12-10-12-------|

Verses
e|--------------------------------------------------------------|
B|--------------------------------------------------------------|
G|--------------------------------------------------------10----|
D|----------------7-7-7\5-5---------5/8-8\7-7-7-7-7-------10----|
A|----------------5-5-5\3-3-5-5-3-3-3/6-6\5-5-5-5---9-9-9-8-----|
D|-xxx//pickslide-----------5-5-3-3-----------------9-9-9-------|


Guitar Solo
e|------------------------------------------------------12-11-12-13-15~----|
B|-----------------------------------------------7-8-10--------------------|
G|---------------------------7-8-10-8-7--------8---------------------------|
D|-----7---7---7-9-------7-9------------9---9b-----------------------------|
A|-7-9---9---9-----9-7-9------------------7--------------------------------|
D|-------------------------------------------------------------------------|

-----------------------------------------------------------------------------
           7.     Poison Running Through Your Veins - Washya
-----------------------------------------------------------------------------
Tabbed by: josh
Email:

Tuning: Drop C
Intro
F|-----2---------2---------3-------0-------3-----------------0---|
A|---3---3-----3---3-----3---3---0---3---2---0-------3-2---1-----|
D|-0-------2-0-------0-2-------0-------2-------2---2-----3-------|
C|---------------------------------------------------------------|
G|-----------------------------------------------0---------------|
C|---------------------------------------------------------------|

Main Riff/Chorus
F|-------------------3-2-------------------0---------------3-------0--|
A|-----------------0-----2---------------5---0---0-3---3-3---2---1----|
D|-------0-3-2---5---------3-2---------7-------0-----2---------2------|
C|-----5-------3---------------3-----9--------------------------------|
G|---2---------------------------5-7----------------------------------|
C|-0------------------------------------------------------------------|


Verses
F|-------------------------------------------------------------------|
A|-------------------------------------------------------------------|
D|-----------------10---------------10\9-----------------------------|
C|-----------------10---------------10\9---------------2-3-5-3-2-0---|
G|-----------------8----------------8-\7---------------2-3-5-3-2-0---|
C|-0-0-0-0-0-0-0-0----0-0-0-0-0-0-0------0-0-0-0-0-0-0-2-3-5-3-2-0---|
pm . . . . . . . .    . . . . . . .      . . . . . . .            

Guitar Solo
F|-12-----12------12----12-14-15-15b-12----------15-12-15-----------------|
A|----15b----15b----15b-----------------15-13-12----------12-------14-----|
D|-----------------------------------------------------------14-12--------|
C|------------------------------------------------------------------------|
G|------------------------------------------------------------------------|
C|------------------------------------------------------------------------|

F|-------15----------15----17-15----------15----17-15----------15----17---|
A|-15-12----13-12-13----13-------13-12-13----13-------13-12-13----13------|
D|------------------------------------------------------------------------|
C|------------------------------------------------------------------------|
G|------------------------------------------------------------------------|
C|------------------------------------------------------------------------|

F|-17b-17b-19-20----------------------------------------------------21-22~-|
A|---------------19-18-------------------------------------------19--------|
D|---------------------20-------------------19-------------19-21-----------|
C|------------------------19-18-20----18-20----20----18-20-----------------|
G|---------------------------------19-------------19-----------------------|
C|-------------------------------------------------------------------------|


-----------------------------------------------------------------------------
			  8.   Permanence  - Washya
-----------------------------------------------------------------------------
Tabbed by:
Email:

Tuning: Drop D
Intro

e|----------------------------------------------------------------------|
B|-------------------------------------------------------------------8~-|
G|-----------------------------------------------------6-------6---6----|
D|-----2-------2-------2-------4-------4-------4-----6---6---6---6------|
A|---2---2---2---2---2---2---4---4---4---4---4---4-4-------4------------|
D|-2-------2-------2-------4-------4-------4----------------------------|

Verses
e|--------------------------------------------------------------------------|
B|--------------------------------------------------------------------------|
G|---------------------2-------2-------3-------3---------------5---5---5-7~-|
D|-----2-------2-----2---2---2---2---3---3---3---3-----3-----5---5---5------|
A|---2---2---2---2-0-------0-------1-------1---------3---3-3----------------|
D|-2-------2---------------------------------------3------------------------|

Chorus
e|-----------------------------------------------|
B|-----------------------------------------------|
G|---------------6-6-8-------2-2-3-3---5-5-7-7-7-|
D|-2-2-2-2-4-4-4-6-6-8-2-2-2-2-2-3-3-3-5-5-7-7-7-|
A|-2-2-2-2-4-4-4-4-4-6-2-2-2-0-0-1-1-3-3-3-5-5-5-|
D|-2-2-2-2-4-4-4-------2-2-2---------3-----------|


Guitar Solo (Play Very Fast)
e|-------3-----------3-----------5-----------7-----9---9-10-12~-|
B|---2-4---4-2---2-4---4-2---4-6---6-4---6-8---8-6---6----------|
G|-3-----------3-----------5-----------7------------------------|
D|--------------------------------------------------------------|
A|--------------------------------------------------------------|
D|--------------------------------------------------------------|

-----------------------------------------------------------------------------
			9.     Zombie Thriller - Washya
-----------------------------------------------------------------------------
Tabbed by: Josh
Email: 

Tuning: Drop D
Intro
e|-----------------------------------------------------------|
B|-----------------------------------------------------------|
G|-----------------------------------------------------------|
D|-5vp4\-0--0-0-0-0-0-0-3v-0--0-0-0-0-0-0-0-2-2-2-2-4-4-4-5--|
A|-------0--0-0-0-0-0-0----0--0-0-0-0-0-0-0-2-2-2-2-4-4-4-5--|
D|-------0--0-0-0-0-0-0----0--0-0-0-0-0-0-0-2-2-2-2-4-4-4-5--|
pm       .  . . . . . .    .  . . . . . . .   

Verses
e|--------------------------------------------------------------------------|
B|--------------------------------------------------------------------------|
G|--------------------------------------------------------------4-4-4-------|
D|--------------------------------------------------------------4-4-4-3-3-2-|
A|-0-0--0-0-0--0-0--0-0-0--0-0--0-0-0-1-1-1-2-2-2-2--0-0--0-0-0-2-2-2-3-3-2-|
D|-0-0--0-0-0--0-0--0-0-0--0-0--0-0-0-1-1-1-2-2-2-2--0-0--0-0-0-------3-3-2-|
pm . .  . . .  . .  . . .  . .  . . .                . .  . . .  

Verses
e|-------------------------------------------------------------------------|
B|-------------------------------------------------------------------------|
G|-------------------------------------------------------------------4-4-4-|
D|-1-1-1-------------------3-3-3-2-2-1-1-------3-3-2-2-1-------------4-4-4-|
A|-1-1-1-1-1-1-3-3-3-5-5-5-3-3-3-2-2-1-1-------3-3-2-2-1-1-1-1-2-2-2-2-2-2-|
D|-1-1-1-------------------3-3-3-2-2-1-1-0-0-0-3-3-2-2-1-------------------|
pm       . . . . . . . . .               . . .           . . . . . .  

e|-------------------------------------|
B|-------------------------------------|
G|-------------------------------------|
D|-3-3-2-1-1-1-------------------5-5-5-|
A|-3-3-2-1-1-1-1-1-1-3-3-3-------3-3-3-|
D|-3-3-2-1-1-1-------------3-3-3-------|
pm             . . . . . . . . .  

Outro
e|-----------------------------------------------------|
B|-----------------------------------------------------|
G|-----------------------------------------------------|
D|-3-3-2-2-1-----------3-3-2-2-1-----------0-5~-0-2\---|
A|-3-3-2-2-1-----------3-3-2-2-1-----------0-5~-0-2\---|
D|-3-3-2-2-1-0-0-0-0-0-3-3-2-2-1-0-0-0-0-0-0-5~-0-2\---|
pm           . . . . .           . . . . . 

-----------------------------------------------------------------------------
			10.     Banshee - Washya
-----------------------------------------------------------------------------
Tabbed by: Josh
Email:

Tuning: Drop D
Intro
e|----------------------------------------------------------------------|
B|----------------------------------------------------------------------|
G|----------------------------------------------------------------------|
D|---------------------------------------12p11p10-12p11p10-12p11p10-12\-|
A|----------------------------------------------------------------------|
D|-0-4-3-0-6-5-0-3-2-0-8-7-0-5-6-0-4-3-0--------------------------------|
pm . . . . . . . . . . . . . . . . . . 

Intro 2
e|--------------------------------------------------------------------|
B|--------------------------------------------------------------------|
G|--------------------------------------------------------------------|
D|-0-4-3-0-6-5-0-3-2-0-8-7-0-5-6-0-4-3-0-12p11p10-12p11p10-12p11p10---|
A|-0-4-3-0-6-5-0-3-2-0-8-7-0-5-6-0-4-3-0------------------------------|
D|-0-4-3-0-6-5-0-3-2-0-8-7-0-5-6-0-4-3-0------------------------------|
pm . . . . . . . . . . . . . . . . . . 

Verses
e|------------------------------------------------------------------------|
B|------------------------------------------------------------------------|
G|-----------12~---------10-9---------------7/6-----7/6-------------------|
D|-0-0---7-9------------------7---------0-0-7/6-0-0-5/6-------------------|
A|-0-0-8------------------------9-7-----0-0-5/4-0-0-5/4----------12h13h15-|
D|-0-0-----------0-0-0-0------------9~--0-0-----0-0-----12h13h15----------|
pm . .           . . . .                . .     . .      . . . . . . . . . 


Chorus
e|-------------------------------------------------------------|
B|-------------------------------------------------------------|
G|-------------------------------------------------------------|
D|-0-2-6-6-6-3-7-7-9-9-9-9-9-7-7-7-7-5-5-8-8-3-3-3-5-5-5-5-5-2-|
A|-0-2-4-4-4-3-7-7-7-7-7-7-7-5-5-5-5-5-5-8-8-3-3-3-3-3-3-3-3-0-|
D|-0-2-------3-7-7-------------------5-5-8-8-3-3-3-------------|
pm . 

Guitar Solo
e|-------------------------------------------------------------------------|
B|-------------------------------------------------------------------------|
G|-------8-7---------------------------------------7-----------------------|
D|-----7-------------------------------------9-7-----9-----------------12~-|
A|-7-9-------8v~--9h10h12---------9h10h12-10-----9-----8-7h10h11----15-----|
D|------------------------9h10h12--------------------------------13--------|


-----------------------------------------------------------------------------
			    11.  Cruel Seas - Washya
-----------------------------------------------------------------------------
Tabbed by: Josh
Email:

Tuning: Standard
Intro
e|-------------------------------------------------------------|
B|-------------------------------------------------------------|
G|-------------------------------------------------------------|
D|-2-2-2-2-2-2-2-2-2-2-5-5-5-5-5-5-5-8-8-8-8-8-8-8-8-6-6-6-6-6-|
A|-2-2-2-2-2-2-2-2-2-2-5-5-5-5-5-5-5-8-8-8-8-8-8-8-8-6-6-6-6-6-|
E|-0-0-0-0-0-0-0-0-0-0-3-3-3-3-3-3-3-6-6-6-6-6-6-6-6-4-4-4-4-4-|

Verses
e|-------------------------------------------------------------5-------|
B|-------------------------------------------3-------------8-7---7-5-7-|
G|--------------------------3------------2-4---4-2-----5-7-------------|
D|---------3------------6-5---6-5----5-3-----------3-5-----------------|
A|-----6-5---5-3----3-5-----------3------------------------------------|
E|-3-5-----------4-----------------------------------------------------|


Chorus
e|-------------------------------------------------------------------|
B|-------------------------------------------------------------------|
G|-------------------------------------------------------------------|
D|-5---5---5-------------7-5-3---------------------------------------|
A|-3-5-3-5-3-5-3-5-3-5-3-5-3-1-5-5-5-3-3-3---3---3---3-3-3-3-2-2-2-2-|
E|---3---3---3-1-3-1-3-1-------3-3-3-1-1-1-1---1---1---1-1-1-0-0-0-0-|

Guitar Solo
e|--------------------------------------------------------------------------|
B|-------------------------------------------------------------------13-15~-|
G|----------------------------------------------------------------12--------|
D|-------------------------------------------------------12-13-15-----------|
A|-------------------12-13-15-12-13-15----------12-13-15--------------------|
E|-12-13-15-12-13-15-------------------12-13-15-----------------------------|

-----------------------------------------------------------------------------
			 12.    The Slaughter - Washya
-----------------------------------------------------------------------------
Tabbed by: Josh
Email:

Tuning: Drop D
Intro (Heavy Distortion)
e|-------------------------------------|
B|-------------------------------------|
G|-------------------------------------|
D|-0-0-3-2-1-6-5-0-2-3-2-0-0-6/5-0-2-1-|
A|-0-0-3-2-1-6-5-0-2-3-2-0-0-6/5-0-2-1-|
D|-0-0-3-2-1-6-5-0-2-3-2-0-0-6/5-0-2-1-|

Verses
e|--------------------------------------------------------------|
B|--------------------------------------------------------------|
G|--------------------------------------------------------------|
D|------------3p2---2-3-2----------8\7-5/7\5-3-2-3-2-0-1-1-1----|
A|------------3p2---2-3-2----------6\5-3/5\3-3-2-3-2-0-1-1-1h2~-|
D|-0-0-0--0-0-3p2-0-2-3-2-0--0-0-0-----------3-2-3-2-0-1-1-1----|
pm . . .  . .     .       .  . . .  

Chorus
e|-------------------------------------------------------------------------|
B|-------------------------------------------------------------------------|
G|---------------5-5-7---------------------7-7-9---------------------3-3-2-|
D|---------------5-5-7---------------------7-7-9---------------------3-3-2-|
A|---------------3-3-5---------------------5-5-7---------------------1-1-0-|
D|-0-3-2-0-3-2-0-------0-3-2-0-3-2-0-2-3-2-------0-5-3-2-5-3-2-5-3-2-------|
pm . . . . . . .       . . . . . . . . . .       . . . . . . . . . .  

Guitar Solo
e|----------------------------8-6-5-----------------------9h10h12-15~----|
B|------------------------7-9-------8-6-5-----------5-6-8----------------|
G|----------------------8-----------------8-6-5-6-8----------------------|
D|------9------9------9--------------------------------------------------|
A|-7-10---7-10---7-10----------------------------------------------------|
D|-----------------------------------------------------------------------|

comments
We did not receive enough feedback on this tab! Please rate:
print report bad tab
1 2 3 4 5
I want to post or [tab]
guest
You may want to rate the tab now too:
select rating
Please do not post tabs as comments. Select "correction" instead!