Oops, an error
Loading. Please wait.

Kiss Me Again Tab

ver2
ver2

Whole song

Interactive

More versions @911Tabs.com
4,627 views 36 this week
no commentswrite comment
1 2 3 4 5
excellent!
x 5
Autoscroll
+/-
esc
set tempo
stop
Contributor
Difficulty
novice
Hey! There's an official Ultimate Guitar app which is ideal
for learning songs when you're away from computer. Get the app
WARNING: You are trying to view
                                    content from Ultimate-Guitar.com
                                    in an unauthorized application,
                                    which is prohibited.

                                    Please use an official Ultimate
                                    Guitar Tabs application for iPhone,
                                    iPad or Android to access legitimate
                                    chords, guitar, bass, and drum tabs
                                    from Ultimate-Guitar.com database.

                                    Type "ultimate guitar tabs" in Apple
                                    App Store's or Android Market's
                                    search to find the application.
-------------------------------------
Kiss Me Again - We Are The In Crowd
-------------------------------------

Tuning: Standard 

My interpretation of Kiss Me Again. I've tabbed more than one guitar part,
 as there are multiple guitar overdubs in this song. Enjoy!

[Intro]

Guitar One:
                                     x2
E|------------------------------------|
B|------------------------------------|
G|------------------------------------|
D|-3-3-3-3--3-3-3-3--7-7-7-5--5-5-5-5-|
A|-0-0-0-1--1-1-1-1--5-5-5-3--3-3-3-3-|
E|------------------------------------|
P.M. . . .  . . . .  . . . .  . . . . 

Guitar Two:

E|-----1------1~~------1-------1~~-|-----1------1~~------1-------3~~-|
B|---1------1--------1-------1-----|---1------1--------1-------1-----|
G|-2-----3---------2-----0---------|-2-----3---------2-----0---------|
D|---------------------------------|---------------------------------|
A|---------------------------------|---------------------------------|
E|---------------------------------|---------------------------------|

Guitar Three:
                  x2
E|-----------------|
B|---------3--5~~~-|
G|-2--3~~~---------|
D|-----------------|
A|-----------------|
E|-----------------|

[Verse]

Guitar One:
                                     x3
E|------------------------------------|
B|------------------------------------|
G|------------------------------------|
D|-3-3-3-3--3-3-3-3--7-7-7-5--5-5-5-5-|
A|-0-0-0-1--1-1-1-1--5-5-5-3--3-3-3-3-|
E|------------------------------------|
P.M. . . .  . . . .  . . . .  . . . . 

E|-----------------------------------|
B|----------------------------6-6-6--|
G|----------------------------5-5-5--|
D|----------------------------3-3-3--|
A|-5-5-5-5-5-5-5-5--8-8-8-8---3-3-3--|
E|-3-3-3-3-3-3-3-3--6-6-6-6----------|
P.M. . . . . . . .  . . . .
                                    x3
E|------------------------------------|
B|------------------------------------|
G|------------------------------------|
D|-3-3-3-3--3-3-3-3--7-7-7-5--5-5-5-5-|
A|-0-0-0-1--1-1-1-1--5-5-5-3--3-3-3-3-|
E|------------------------------------|
P.M. . . .  . . . .  . . . .  . . . . 

E|------------------------|
B|------------------------|
G|------------------------|
D|------------------8--8--|
A|-5-5-5-5-5-5-5-5--8--8--|
E|-3-3-3-3-3-3-3-3--6--6--|
P.M. . . . . . . . 

Guitar Two:
                                                                    
E|-----1------1~~------1-------1~~-|-----1------1~~------1-------3~~-|
B|---1------1--------1-------1-----|---1------1--------1-------1-----|
G|-2-----3---------2-----0---------|-2-----3---------2-----0---------|
D|---------------------------------|---------------------------------|
A|---------------------------------|---------------------------------|
E|---------------------------------|---------------------------------|

E|-----1------1~~------1-------1~~-|-1~~~~--1--1--|
B|---1------1--------1-------1-----|-1~~~~--1--1--|
G|-2-----3---------2-----0---------|-3~~~~--3--3--|
D|---------------------------------|--------------|
A|---------------------------------|--------------|
E|---------------------------------|--------------|

Guitar Three:
                 x3
E|-----------------|-------|
B|---------3--5~~~-|-------|
G|-2--3~~~---------|-3~~~~-|
D|-----------------|-------|
A|-----------------|-------|
E|-----------------|-------|

[Chorus]

Guitar One:

E|----------------------|---------------------|
B|----------------------|---------------------|
G|------5-5--3~~-3-3-3--|-2-2--5-5--3~~-3-3-3-|
D|-3-3--5-5--3~~-3-3-3--|-0-0--5-5--3~~-3-3-3-|
A|-3-3--3-3--1~~-1-1-1--|-0-0--3-3--1~~-1-1-1-|
E|-1-1------------------|---------------------|

E|----------------------|------------------------|
B|----------------------|------------------------|
G|------5-5--3~~-3-3-3--|-2-2--5-5--3~~-3--5-5-5-|
D|-3-3--5-5--3~~-3-3-3--|-0-0--5-5--3~~-3--5-5-5-|
A|-3-3--3-3--1~~-1-1-1--|-0-0--3-3--1~~-1--3-3-3-|
E|-1-1------------------|------------------------|

E|-----------------------------------|-----------------------|
B|-----------------------------------|-----------------------|
G|-3-3-3-3-3-3--5-5--5-5-5-5-5-5-5-5-|-----------------------|
D|-3-3-3-3-3-3--5-5--5-5-5-5-5-5-5-5-|-5-5-5-5-5-5-5-5--8--8-|
A|-1-1-1-1-1-1--3-3--3-3-3-3-3-3-3-3-|-5-5-5-5-5-5-5-5--8--8-|
E|-----------------------------------|-3-3-3-3-3-3-3-3--6--6-|

Guitar Two: (Octaves)

E|------------------------------|------------------------------|
B|------------------------------|------------------------------|
G|-14-14--12-12--15~~-15-15-15--|-14-14--12-12--10~~-10-10-10--|
D|------------------------------|------------------------------|
A|-12-12--10-10--13~~-13-13-13--|-12-12--10-10---8~~--8--8--8--|
E|------------------------------|------------------------------|

E|------------------------------|--------------------------------------|
B|------------------------------|--------------------------------------|
G|-14-14--12-12--15~~-15-15-15--|-14-14--12-12--10~~-10-10--12-12-12---|
D|------------------------------|--------------------------------------|
A|-12-12--10-10--13~~-13-13-13--|-12-12--10-10---8~~--8--8--10-10-10---|
E|------------------------------|--------------------------------------|

                            x3
E|------------------------------|---------|
B|------------------------------|---------|
G|-10-10-10-10-10-10-10-10------|-10-10---|
D|------------------------------|---------|
A|--8--8--8--8--8--8--8--8------|--8--8---|
E|------------------------------|---------|

[After 1st Chorus]

Guitar One:

E|-----1------1~~------1-------1~~-|-----1------1~~------1-------3~~-|
B|---1------1--------1-------1-----|---1------1--------1-------1-----|
G|-2-----3---------2-----0---------|-2-----3---------2-----0---------|
D|---------------------------------|---------------------------------|
A|---------------------------------|---------------------------------|
E|---------------------------------|---------------------------------|

Guitar Two: 
                 x2
E|-----------------|
B|---------3--5~~~-|
G|-2--3~~~---------|
D|-----------------|
A|-----------------|
E|-----------------|

Guitar Three:

(Chords before the second verse)

E|--------|
B|-6-6-6--|
G|-5-5-5--|
D|-3-3-3--|
A|-3-3-3--|
E|--------|

[Verse 2]

Guitar One:

                                   x3
E|------------------------------------|
B|------------------------------------|
G|------------------------------------|
D|-3-3-3-3--3-3-3-3--7-7-7-5--5-5-5-5-|
A|-0-0-0-1--1-1-1-1--5-5-5-3--3-3-3-3-|
E|------------------------------------|
P.M. . . .  . . . .  . . . .  . . . . 

E|-----------------------------------|
B|----------------------------6-6-6--|
G|----------------------------5-5-5--|
D|----------------------------3-3-3--|
A|-5-5-5-5-5-5-5-5--8-8-8-8---3-3-3--|
E|-3-3-3-3-3-3-3-3--6-6-6-6----------|
P.M. . . . . . . .  . . . .

Guitar Two:
                                    x3
E|-----1-----1-----------1-0---1-0---|
B|---1-----1-----1-----1-----1-----1-|
G|-2-----3-----3-----2---------------|
D|-----------------------------------|
A|-----------------------------------|
E|-----------------------------------|
P.M. . . . . . . .   . . . . . . . . 

Guitar One:
                                    x3
E|------------------------------------|
B|------------------------------------|
G|------------------------------------|
D|-3-3-3-3--3-3-3-3--7-7-7-5--5-5-5-5-|
A|-0-0-0-1--1-1-1-1--5-5-5-3--3-3-3-3-|
E|------------------------------------|
P.M. . . .  . . . .  . . . .  . . . . 

E|------------------------|
B|------------------------|
G|------------------------|
D|------------------8--8--|
A|-5-5-5-5-5-5-5-5--8--8--|
E|-3-3-3-3-3-3-3-3--6--6--|
P.M. . . . . . . . 

Guitar Two:
                                                                    
E|-----1------1~~------1-------1~~-|-----1------1~~------1-------3~~-|
B|---1------1--------1-------1-----|---1------1--------1-------1-----|
G|-2-----3---------2-----0---------|-2-----3---------2-----0---------|
D|---------------------------------|---------------------------------|
A|---------------------------------|---------------------------------|
E|---------------------------------|---------------------------------|

E|-----1------1~~------1-------1~~-|-1~~~~--1--1--|
B|---1------1--------1-------1-----|-1~~~~--1--1--|
G|-2-----3---------2-----0---------|-3~~~~--3--3--|
D|---------------------------------|--------------|
A|---------------------------------|--------------|
E|---------------------------------|--------------|

Guitar Three:
                 x3
E|-----------------|-------|
B|---------3--5~~~-|-------|
G|-2--3~~~---------|-3~~~~-|
D|-----------------|-------|
A|-----------------|-------|
E|-----------------|-------|


[Bridge]

Guitar One:

E|-----------------------------------|------------------------------------|
B|-3-3-3-3-3-3-3-3-------------------|------------------------------------|
G|-2-2-2-2-2-2-2-2--2-2-2-2-2-2-2-2--|-3-3-3-3-3-3-3-3--------------------|
D|-0-0-0-0-0-0-0-0--3-3-3-3-3-3-3-3--|-3-3-3-3-3-3-3-3--3-3-3-3--3-3-3-3--|
A|-0-0-0-0-0-0-0-0--0-0-0-0-0-0-0-0--|-1-1-1-1-1-1-1-1--3-3-3-3--3-3-3-3--|
E|-----------------------------------|------------------1-1-1-1--0-0-0-0--|

E|-----------------------------------|------------------------------------|
B|-3-3-3-3-3-3-3-3-------------------|------------------------------------|
G|-2-2-2-2-2-2-2-2--2-2-2-2-2-2-2-2--|-5-5-5-5-5-5-5-5--4-4-4-4--4-4-4-4--|
D|-0-0-0-0-0-0-0-0--3-3-3-3-3-3-3-3--|-5-3-3-3-3-3-3-3--5-5-5-5--5-5-5-5--|
A|-0-0-0-0-0-0-0-0--0-0-0-0-0-0-0-0--|-3-3-3-3-3-3-3-3--2-2-2-2--2-2-2-2--|
E|-----------------------------------|------------------------------------|

                   x2
E|------------------|
B|------------------|
G|-3-3-3-3-3-3-3-3--|
D|-3-3-3-3-3-3-3-3--|
A|-1-1-1-1-1-1-1-1--|
E|------------------|

Guitar Two:
                                                     
E|-----------------------------------|-----------------------------------|
B|-----------------------------------|-----------------------------------|
G|-7-7-7-7-7-7-7-7--5-5-5-5-5-5-5-5--|-5-5-5-5-5-5-5-5--5-5-5-5-5-5-5-5--|
D|-----------------------------------|-----------------------------------|
A|-5-5-5-5-5-5-5-5--3-3-3-3-3-3-3-3--|-3-3-3-3-3-3-3-3--3-3-3-3-3-3-3-3--|
E|-----------------------------------|-----------------------------------|

E|-----------------------------------|-----------------------------------|
B|-----------------------------------|-----------------------------------|
G|-7-7-7-7-7-7-7-7--5-5-5-5-5-5-5-5--|-5-5-5-5-5-5-5-5--4-4-4-4-4-4-4-4--|
D|-----------------------------------|-----------------------------------|
A|-5-5-5-5-5-5-5-5--3-3-3-3-3-3-3-3--|-3-3-3-3-3-3-3-3--2-2-2-2-2-2-2-2--|
E|-----------------------------------|-----------------------------------|

                   x2
E|------------------|
B|------------------|
G|-3-3-3-3-3-3-3-3--|
D|------------------|
A|-1-1-1-1-1-1-1-1--|
E|------------------|

[After Bridge]

Guitar One: 

E|-----1------1~~------1-------1~~-|-----1------1~~----|
B|---1------1--------1-------1-----|---1------1--------|
G|-2-----3---------2-----0---------|-2-----3-----------|
D|---------------------------------|-------------------|
A|---------------------------------|-------------------|
E|---------------------------------|-------------------|

Guitar Two:

                
E|-----------------|------------------|
B|---------3--5~~~-|---------6-3-5/8--|
G|-2--3~~~---------|-2--3~~~----------|
D|-----------------|------------------|
A|-----------------|------------------|
E|-----------------|------------------|

[Chorus 3]

Guitar One:

E|----------------------|---------------------|
B|----------------------|---------------------|
G|------5-5--3~~-3-3-3--|-2-2--5-5--3~~-3-3-3-|
D|-3-3--5-5--3~~-3-3-3--|-0-0--5-5--3~~-3-3-3-|
A|-3-3--3-3--1~~-1-1-1--|-0-0--3-3--1~~-1-1-1-|
E|-1-1------------------|---------------------|

E|----------------------|------------------------|
B|----------------------|------------------------|
G|------5-5--3~~-3-3-3--|-2-2--5-5--3~~-3--5-5-5-|
D|-3-3--5-5--3~~-3-3-3--|-0-0--5-5--3~~-3--5-5-5-|
A|-3-3--3-3--1~~-1-1-1--|-0-0--3-3--1~~-1--3-3-3-|
E|-1-1------------------|------------------------|

E|-----------------------------------|------------------------------------|
B|-----------------------------------|------------------------------------|
G|-3-3-3-3-3-3--5-5--5-5-5-5-5-5-5-5-|------------------------------------|
D|-3-3-3-3-3-3--5-5--5-5-5-5-5-5-5-5-|-5-5-5-5-5-5--8-8--8-8-8-8-8-8-8-8--|
A|-1-1-1-1-1-1--3-3--3-3-3-3-3-3-3-3-|-5-5-5-5-5-5--8-8--8-8-8-8-8-8-8-8--|
E|-----------------------------------|-3-3-3-3-3-3--6-6--6-6-6-6-6-6-6-6--|

E|-----------------------------------|------------------1--1--|
B|-----------------------------------|------------------1--1--|
G|-3-3-3-3-3-3--5-5--5-5-5-5-5-5-5-5-|------------------3--3--|
D|-3-3-3-3-3-3--5-5--5-5-5-5-5-5-5-5-|-5-5-5-5-5-5-5-5--3--3--|
A|-1-1-1-1-1-1--3-3--3-3-3-3-3-3-3-3-|-5-5-5-5-5-5-5-5--------|
E|-----------------------------------|-3-3-3-3-3-3-3-3--------|

Guitar Two: (Octaves)

E|------------------------------|------------------------------|
B|------------------------------|------------------------------|
G|-14-14--12-12--15~~-15-15-15--|-14-14--12-12--10~~-10-10-10--|
D|------------------------------|------------------------------|
A|-12-12--10-10--13~~-13-13-13--|-12-12--10-10---8~~--8--8--8--|
E|------------------------------|------------------------------|

E|------------------------------|--------------------------------------|
B|------------------------------|--------------------------------------|
G|-14-14--12-12--15~~-15-15-15--|-14-14--12-12--10~~-10-10--12-12-12---|
D|------------------------------|--------------------------------------|
A|-12-12--10-10--13~~-13-13-13--|-12-12--10-10---8~~--8--8--10-10-10---|
E|------------------------------|--------------------------------------|

                            x3
E|------------------------------|-----------------|
B|------------------------------|-----------------|
G|-10-10-10-10-10-10-10-10------|-7-7-7-7-7-7-7-7-|
D|------------------------------|-----------------|
A|--8--8--8--8--8--8--8--8------|-5-5-5-5-5-5-5-5-|
E|------------------------------|-----------------|

E|------------------------------------|--------------------------|---------|
B|------------------------------------|--------------------------|---------|
G|-7-7-7-7-7-7--9-9--9-9-9-9-9-9-9-9--|-10-10-10-10-10-10-10-10--|-10-10---|
D|------------------------------------|--------------------------|---------|
A|-5-5-5-5-5-5--7-7--7-7-7-7-7-7-7-7--|--8--8--8--8--8--8--8--8--|--8--8---|
E|------------------------------------|--------------------------|---------|

[Outro]

Guitar One:

E|----------------------|---------------------|
B|----------------------|---------------------|
G|------5-5--3~~-3-3-3--|-2-2--5-5--3~~~~~~~~-|
D|-3-3--5-5--3~~-3-3-3--|-0-0--5-5--3~~~~~~~~-|
A|-3-3--3-3--1~~-1-1-1--|-0-0--3-3--1~~~~~~~~-|
E|-1-1------------------|---------------------|

Guitar Two:

E|------------------------------|------------------------------|
B|------------------------------|------------------------------|
G|-14-14--12-12--15~~-15-15-15--|-14-14--12-12--10~~~~~~~~~~~--|
D|------------------------------|------------------------------|
A|-12-12--10-10--13~~-13-13-13--|-12-12--10-10---8~~~~~~~~~~~--|
E|------------------------------|------------------------------|

Song Structure:

Intro
Verse
Chorus
Verse
After 1st Chorus
Verse 2
Chorus 2 (Same as 1st Chorus)
Bridge
After Bridge
Chorus 3
Outro

Key:

/ Slide
~ Let Ring
P.M - Palm Mute
comments
print report bad tab
I want to post or [tab]
guest
You may want to rate the tab now too:
select rating
Please do not post tabs as comments. Select "correction" instead!